20130214

BEHIND BLUE EYES TAB


Lukas Z plays a perfect guitar cover of Behind Blue Eyes by Limp Bizkit
TAB helps below.




LIMP BIZKIT BEHIND BLUE EYES TAB


Intro (and verse 3 4 5 6)

e---------0---------------0---------------0---------------0-------------
B-----------0---------------3---------3-----3---3-----3-----3---3-------
G-------0-----0---------0-----0-----2---2-----2-----2---2-----2---------
D-----2---------2-----0---------0-0---------------0---------------------
A---2---------------2---------------------------------------------------
E-0---------------3-----------------------------------------------------


e--------0---------------0---------------0---------------0--------------
B-----3----3---3-----3-----3---3-----0-----0---0-----0-----0---0--------
G-----------------------------------------------------------------------
D---2--2-----2-----2---2-----2-----2---2-----2-----2---2-----2----------
A-3--------------3---------------0---------------0----------------------
E-----------------------------------------------------------------------



Verse 1 2 and 7

e---------0---------------0---------------0---------------0-------------
B-----------0---------------3---------3-----3---3-----3-----3---3-------
G-------0-----0---------0-----0-----2---2-----2-----2---2-----2---------
D-----2---------2-----0---------0-0---------------0---------------------
A---2---------------2---------------------------------------------------
E-0---------------3-----------------------------------------------------


e--------0---------------0-----0-0-0---0-0------------------------------
B-----3----3---3-----3-----3---0-0-0---0-0------------------------------
G------------------------------2-2-2---2-2------------------------------
D---2--2-----2-----2---2-----2-2-2-2---2-2------------------------------
A-3--------------3-------------0-0-0---0-0------------------------------
E-----------------------------------------------------------------------


Chorus

  Cadd9           D               G

e-0-------0-----0-2-----2-2-----2-3-------3-----3---3-3---3---3-3-------
B-3-------3-----3-3-----3-3-----3-3-------3-----3---3-3---3---3-3-------
G-0-------0-----0-2-----2-2-----2-0-------0-----0---0-0---0---0-0-------
D-2-------2-----2-0-----0-0-----0-0-------0-----0---0-0---0---0-0-------
A-3-------3-----3-----------------2-------2-----2---2-2---2---2-2-------
E---------------------------------3-------3-----3---3-3---3---3-3-------

  Cadd9           D               E         Esus4   E

e-0-------0-------2-------2-----2-0---0-0-0-0---0---0-0-0-0---0-0-------
B-3-------3-------3-------3-----3-0---0-0-0-0---0---0-0-0-0---0-0-------
G-0-------0-------2-------2-----2-1---1-1-1-2---1---1-1-1-1---1-1-------
D-2-------2-------0-------0-----0-2---2-2-2-2---2---2-2-2-2---2-2-------
A-3-------3-----------------------2---2-2-2-2---2---2-2-2-2---2-2-------
E---------------------------------0---0-0-0-0---0---0-0-0-0---0-0-------

  Bm                              Cadd9

e-2-------2-----2---2-2---2---2-2-0-------0-----0---0-0---0---0-0-------
B-3-------3-----3---3-3---3---3-3-3-------3-----3---3-3---3---3-3-------
G-4-------4-----4---4-4---4---4-4-0-------0-----0---0-0---0---0-0-------
D-4-------4-----4---4-4---4---4-4-2-------2-----2---2-2---2---2-2-------
A-2-------2-----2---2-2---2---2-2-3-------3-----3---3-3---3---3-3-------
E-----------------------------------------------------------------------

  D                               Asus2

e-2-------2-----2---2-2---2---2-2-0-------0-----0---0-0---0---0-0-------
B-3-------3-----3---3-3---3---3-3-0-------0-----0---0-0---0---0-0-------
G-2-------2-----2---2-2---2---2-2-2-------2-----2---2-2---2---2-2-------
D-0-------0-----0---0-0---0---0-0-2-------2-----2---2-2---2---2-2-------
A---------------------------------0-------0-----0---0-0---0---0-0-------
E-----------------------------------------------------------------------


e-0-------0-----0---0-0---0---0-0---------------------------------------
B-0-------0-----0---0-0---0---0-0---------------------------------------
G-2-------2-----2---2-2---2---2-2---------------------------------------
D-2-------2-----2---2-2---2---2-2---------------------------------------
A-0-------0-----0---0-0---0---0-0---------------------------------------
E-----------------------------------------------------------------------