20130211

BLUES BROTHERS JAILHOUSE ROCK TAB - SOLO


Let's learn how to play the guitar solo of Jailhose Rock by The Blues Brothers.
TAB helps below.




BLUES BROTHERS JAILHOUSE ROCK TAB


e---9/10---10-9/10---10-10---10-----------------------------------------
B---9/10---10-9/10---10-10---10----------12.--10--\---------------------
G-------------------------------13p12p10-12.--10--\---------------------
D-----------------------------------------------------------------------
A-----------------------------------------------------------------------
E-----------------------------------------------------------------------


e---13~~----10------10---10---------------------------------------------
B----------------13-----------------------------------------------------
G---------------------------13p12p10------------------------------------
D------------------------------------12~--12~-\-------------------------
A-----------------------------------------------------------------------
E-----------------------------------------------------------------------


e-----------------------------------------------------------------------
B----------------10------------10---10----------------------------------
G----------------10------------10---10----------------------------------
D-------10---h12------12p10-------x-----12--\---------------------------
A---/12--------------------12-------------------------------------------
E-----------------------------------------------------------------------



e---10----------10----------10-----------------------10-----------------
B---(15)(13).---(15)(13).---(15)(13).--(15)(13)-10.--(13)(15)~~---------
G-----------------------------------------------------------------------
D-----------------------------------------------------------------------
A-----------------------------------------------------------------------
E-----------------------------------------------------------------------


e-----------------------------------------------------------------------
B------------12---------------------------------------------------------
G---13p12p10-12---10~--\------------------------------------------------
D-----------------------------------------------------------------------
A-----------------------------------------------------------------------
E-----------------------------------------------------------------------


e-----------------------------------------------------------------------
B---12/13-13---13-12/13---13-13---13------------------------------------
G---13/14-14---14-13/14---14-14---14-14\12p10---------------------------
D---------------------------------------------12---12---\---------------
A-----------------------------------------------------------------------
E-----------------------------------------------------------------------


e---10-13p10--13p10-----------------------------------------------------
B-----------13-----13-13p10--13p10--------------------------------------
G--------------------------12-----12-13p12-10-13p12p10------10----------
D-----------------------------------------------------12--10------------
A-----------------------------------------------------------------------
E-----------------------------------------------------------------------


e-----------------------------------------------------------------------
B---12'---10---12(14)--(14)--(14)--(14)(12)-----------------------------
G---12'---10---12(14)--(14)--(14)--(14)(12)---p10-----------------------
D-------------------------------------------------12---12\--------------
A-----------------------------------------------------------------------
E-----------------------------------------------------------------------