20130206

CARLOS SANTANA SAMBA PA TI TAB

We all know that Carlos Santana is the guitarist, who never plays his songs note for note live, but the original Samba Pa Ti is a very good record. No wonder that many guitarists want to learn how to play it. Here is a guitar lesson and a guitar tab to help you out. You can find a lot of backing tracks to practice and to play along this song. Complete solo TAB at the bottom !!!


CARLOS SANTANA SAMBA PA TI TAB                                            Printable tab here

e-----------------------------------------------------------------------
H-------------------4/5---8.-----------------(-----6h7----)-------------
G-----4.---5---7.--------------5h7~~~--------(-4h7--------)-------------
D-7---------------------------------------------------------------------
A-----------------------------------------------------------------------
E-----------------------------------------------------------------------


e-----------------------------------------------------------------------
H------------4/5---8.--------------------------(--------6/7--7--)-------
G---4.-5---7------------5h7~~------------------(----4h7---------)-------
D-7--------------------------------------------(--7-------------)-------
A-----------------------------------------------------------------------
E-----------------------------------------------------------------------


e-5h7--5h7p5-------------5----------7---------------\-------------------
H------------8~~~--p5.---8(10)~~----10(12)~~~-------\-------------------
G-----------------------------------------------------------------------
D-----------------------------------------------------------------------
A-----------------------------------------------------------------------
E-----------------------------------------------------------------------


 

e-5h7p5h7p5\3------p0.--------------------0------h3p0-------------------
H------------------------8(10)---(8)p5.--------------h3-----------------
G-----------------------------------------------------------------------
D-----------------------------------------------------------------------
A-----------------------------------------------------------------------
E-----------------------------------------------------------------------


e-----------------------------------------------------------------------
H-5-----------5-------------------------4/5---h7p5----------------------
G---7-5\4/5h7-------------------4---7.-------------7--------------------
D---------------7-------------------------------------------------------
A-----------------------------------------------------------------------
E-----------------------------------------------------------------------


e-5h7--5h7p5-5--------------------5~~~~~~~~-----------------------------
H----------------8.---8--p5---8-----------------------------------------
G-----------------------------------------------------------------------
D-----------------------------------------------------------------------
A-----------------------------------------------------------------------
E-----------------------------------------------------------------------

2nd round

e-----------------------------------------------------------------------
H-------------------4/5---8.-----------------(-----6h7--7---7h8p7--)----
G-----4.---5---7.--------------5h7~~~--------(-4-7---------------7.)----
D-7---------------------------------------------------------------------
A-----------------------------------------------------------------------
E-----------------------------------------------------------------------


e-----------------------------------------------------------------------
H------------4/5---8.-------------------------(----6h7-7-----------)----
G---4.-5---7------------5h7~~-----------------(4h7-----------------)----
D-7---------------------------------------------------------------------
A-----------------------------------------------------------------------
E-----------------------------------------------------------------------


e--12----------------12.------------------------------------------------
H--x----15(17)~~--------------------------------------------------------
G-x------------------------14(16)(14)p12--------------------------------
D----------------------------------------14~~---------------------------
A-----------------------------------------------------------------------
E-----------------------------------------------------------------------


e-5h7--5h7p5-------------5----------7---------------\-------------------
H------------8~~~--p5.---8(10)~~----10(12)~~~-------\-------------------
G-----------------------------------------------------------------------
D-----------------------------------------------------------------------
A-----------------------------------------------------------------------
E-----------------------------------------------------------------------


e-5h7p5h7p5\3------p0.---3h5------p3p0.---0------h3p0-------------------
H----------------------------------------------------h3-----------------
G-----------------------------------------------------------------------
D-----------------------------------------------------------------------
A-----------------------------------------------------------------------
E-----------------------------------------------------------------------


e-----------------------------------------------------------------------
H-5-----------5---------------(---------------4/5---------)-------------
G---7-5\4/5h7-----------------(------4---7.---------7-4-7-)-------------
D---------------7-------------(7/8------------------------)-------------
A-----------------------------------------------------------------------
E-----------------------------------------------------------------------


e-5h7--5h7p5.--5------------------5~~~~~~~~-----------------------------
H------------------8.---8--p5---8---------------------------------------
G-----------------------------------------------------------------------
D-----------------------------------------------------------------------
A-----------------------------------------------------------------------
E-----------------------------------------------------------------------

Keyboard interlude

e--------------7.---7---------------------------------------------------
H-8-8-8---10--------10(12)------7---------------------------------------
G-------------------------------9(11)-----------------------------------
D-----------------------------------------------------------------------
A-----------------------------------------------------------------------
E-----------------------------------------------------------------------


e-5h7---5h7p5-------------------5---------------------------------------
H-------------8---7-------7-8-------------------------------------------
G-----------------------------------------------------------------------
D-----------------------------------------------------------------------
A-----------------------------------------------------------------------
E-----------------------------------------------------------------------


e--------------7.---7---------------------------------------------------
H-8-8-8---10--------10(12)------7---------------------------------------
G-------------------------------9(11)-----------------------------------
D-----------------------------------------------------------------------
A-----------------------------------------------------------------------
E-----------------------------------------------------------------------


e-5h7---5h7p5-------------------5---------------------------------------
H-------------8---7-------7-8-------------------------------------------
G-----------------------------------------------------------------------
D-----------------------------------------------------------------------
A-----------------------------------------------------------------------
E-----------------------------------------------------------------------


e-------------3-5------/7---------------------3-5-----------------------
H-3-3-3--h5-----------------------3-3-3--h5---------3h5p3~~~~~~~-5.-----
G-----------------------------------------------------------------------
D-----------------------------------------------------------------------
A-----------------------------------------------------------------------
E-----------------------------------------------------------------------


e-------------3-5------/7---------------------3-5-----------------------
H-3-3-3--h5-----------------------3-3-3--h5---------3h5p3~~~~~~~--------
G-----------------------------------------------------------------------
D-----------------------------------------------------------------------
A-----------------------------------------------------------------------
E-----------------------------------------------------------------------



Solo till the end ...

e-------/10~----10~----10~----10~----10~----10---8---7------------------
B-3.---------------------------------------------------8h10---8-7---8---
G-----------------------------------------------------------------------
D-----------------------------------------------------------------------
A-----------------------------------------------------------------------
E-----------------------------------------------------------------------


e------7.----3.---------------------------------------------------------
B-10-------------3(5)(3)------------------------------------------------
G-----------------------------------------------------------------------
D-----------------------------------------------------------------------
A-----------------------------------------------------------------------
E-----------------------------------------------------------------------


e-0.------------------------0-------------------------------------------
B-----3(5)---(3)p0--------0---3p0---------------------------------------
G------------------2(4)-----------2(4)(2)p0-----------------------------
D-------------------------------------------2.--------------------------
A-----------------------------------------------------------------------
E-----------------------------------------------------------------------


e-/10~------10~----10~----10~-----10~-----10~---10~-----8---7-----------
B------------------------------12------12---------------------8h10---8--
G-----------------------------------------------------------------------
D-----------------------------------------------------------------------
A-----------------------------------------------------------------------
E-----------------------------------------------------------------------


e----------------7.---3.------------------------------------------------
B-7---8-----10------------3(5)(3)---------------------------------------
G-----------------------------------------------------------------------
D-----------------------------------------------------------------------
A-----------------------------------------------------------------------
E-----------------------------------------------------------------------


e-12--------------------------------------------------------------------
B--------15(17)(15)---15~----15~--15~----15~----15~----15~----15~-------
G-----------------------------------------------------------------------
D-----------------------------------------------------------------------
A-----------------------------------------------------------------------
E-----------------------------------------------------------------------


e-----------------------------------------------------------------------
B-15---p12--------------------------------------------------------------
G----------14(16)---(14)p12----12~----14(16)~---------------------------
D---------------------------14------------------------------------------
A-----------------------------------------------------------------------
E-----------------------------------------------------------------------


e------------------------------------------12.--------------------------
B-15~------p12-15.--(17)---(15)---p12-15.-------15(17)---(15)p12--------
G-----------------------------------------------------------------------
D-----------------------------------------------------------------------
A-----------------------------------------------------------------------
E-----------------------------------------------------------------------


e-----------------------------------------------------------------------
B-15~----15~----15~-----------------------------------------------------
G----------------------14(16)-----14(16)(14)p12----12~----14(16)~-------
D-----------------------------------------------14----------------------
A-----------------------------------------------------------------------
E-----------------------------------------------------------------------


e------------------------------------------------12---------------------
B---------------------------------------------12----15p12---------------
G-14(16)~--------(16)(14)---14~--p12-14(16)---------------14(16)(14)p12.
D-----------------------------------------------------------------------
A-----------------------------------------------------------------------
E-----------------------------------------------------------------------


e----15(17)---(15)p12---------------------------------------------------
B---------------------15(17)---(15)p12----------------------------------
G--------------------------------------14(16)(14)p12--------------------
D----------------------------------------------------14~----------------
A-----------------------------------------------------------------------
E-----------------------------------------------------------------------


e-12---14-14---15-15---17-17---15-15---14-14---12-12--\10-12~---\-------
B-----------------------------------------------------------------------
G-----------------------------------------------------------------------
D-----------------------------------------------------------------------
A-----------------------------------------------------------------------
E-----------------------------------------------------------------------


e-7----h8p7\5----h7p5\3----5p3--p2---0-------------------5--------------
B-----------------------------------------------5------5----------------
G----------------------------------------7(9)-----7(9)-----7(9)(7)---5-/
D-----------------------------------------------------------------------
A-----------------------------------------------------------------------
E-----------------------------------------------------------------------


e------------12.---------------------------12---------------------------
B-15(17)~--------------------12-15(17)~---------------------------------
G-------------------14(16)--------------------14(16)---(14)p12~---------
D-----------------------------------------------------------------------
A-----------------------------------------------------------------------
E-----------------------------------------------------------------------


e-----------------------------------------------------------------------
B-----------------------------------------------------------------------
G-14(16)(14)p12----12~----14(16)~---------------------------------------
D---------------14------------------------------------------------------
A-----------------------------------------------------------------------
E-----------------------------------------------------------------------


e-17(19)-------------(19)(17)---p15---17.-------------------------------
B------------------------------------------17~-----\\\------------------
G-----------------------------------------------------------------------
D-----------------------------------------------------------------------
A-----------------------------------------------------------------------
E-----------------------------------------------------------------------


e-12h14---15p14p12-14p12\10-12p10.--8.--7.--5.--3h5.--------------------
B-----------------------------------------------------------------------
G-----------------------------------------------------------------------
D-----------------------------------------------------------------------
A-----------------------------------------------------------------------
E-----------------------------------------------------------------------


e-5-------5h7p5--------------5.-----------------------------------------
B---5-7h8-------8-7p5------5-5.-----------------------------------------
G---------------------7(9)----------------------------------------------
D-----------------------------------------------------------------------
A-----------------------------------------------------------------------
E-----------------------------------------------------------------------


e-/12-------12-p-10-10-\-8-8-\-7-7-\-5-5-\-3-3-\-2-2-p-0----------------
B--------------------------------------------------------3-p-1-1-p-0----
G--------------------------------------------------------------------4--
D-----------------------------------------------------------------------
A-----------------------------------------------------------------------
E-----------------------------------------------------------------------


e----------3.--5.--7.--7/10-\-7-----5---7.------------------------------
B---------------------------------------------------------5-\-3-3h5-p-3-
G--2~----0----------------------------------7(9)~-----(7)---------------
D-----------------------------------------------------------------------
A-----------------------------------------------------------------------
E-----------------------------------------------------------------------


e-----------------------------------------------------------------------
B-3h5p3---0-3h5p3p0-3h5p3p0-3h5p3p0-3h5p3p0-3h5p3p0-3h5p3p0-3h5p3p0-----
G-----------------------------------------------------------------------
D-----------------------------------------------------------------------
A-----------------------------------------------------------------------
E-----------------------------------------------------------------------


e--------------------------------------/12.-----------------------------
B-3h5p3p0-3h5p3p0-3h5p3p0-----------------------------------------------
G-----------------------------------------------------------------------
D-----------------------------------------------------------------------
A-----------------------------------------------------------------------
E-----------------------------------------------------------------------


e-22---22-21---21-20---20---19---19\------------------------------------
B-----------------------------------------------------------------------
G-----------------------------------------------------------------------
D-----------------------------------------------------------------------
A-----------------------------------------------------------------------
E-----------------------------------------------------------------------


e-17---17-15---14---12-------------------------------12-----------------
B------------------------15(17)---(15)p12----------12--15p12------------
G-----------------------------------------14(16)------------------------
D-----------------------------------------------------------------------
A-----------------------------------------------------------------------
E-----------------------------------------------------------------------


e------------12----------------12----------------12---------------------
B----------12--15p12---------12--15p12---------12--15p12----------------
G-14(16)------------14(16)------------14(16)------------14(16)(14)p12---
D-----------------------------------------------------------------------
A-----------------------------------------------------------------------
E-----------------------------------------------------------------------


e-15(17)-----(15)p12----------------------------------------------------
B--------------------12-----15------------------------------------------
G------------------------------14(16)-----(14)-12.----------------------
D-----------------------------------------------------------------------
A-----------------------------------------------------------------------
E-----------------------------------------------------------------------


e-15-----14-----12------------------------------------------------------
B----------------------15~----p12-15-\\\--------------------------------
G-----------------------------------------------------------------------
D-----------------------------------------------------------------------
A-----------------------------------------------------------------------
E-----------------------------------------------------------------------


e-12--------------------------------------------------------------------
B-----------------------------------------------------------------------
G--------14(16)---(14)-12~-----12-\\\-----------------------------------
D---------------------------14------------------------------------------
A-----------------------------------------------------------------------
E-----------------------------------------------------------------------


e----------7--h8------7-------5---7-----5---5-----------------------0---
B-10-------------10-------8-----------8---------5---5---5-5(6)(5)-------
G-----------------------------------------------------------------------
D-----------------------------------------------------------------------
A-----------------------------------------------------------------------
E-----------------------------------------------------------------------


e---/12---------------------------12~--------12h14~-----12h14p12--------
B---------15~~~----------------------------------------------------15~--
G-----------------------------------------------------------------------
D-----------------------------------------------------------------------
A-----------------------------------------------------------------------
E-----------------------------------------------------------------------


e--------------------------------------------12h14~-----12h14p12--------
B-12.--15.--(17)(15)(17)~------------------------------------------15~--
G-----------------------------------------------------------------------
D-----------------------------------------------------------------------
A-----------------------------------------------------------------------
E-----------------------------------------------------------------------


e-----------------------------------------------------------------------
B-12.--15p12------------------------------------------------------------
G-----------14(16)---(14)p12-14(16)(14)p12-14-(16)(14)p12-14-(16)(14)p12
D-----------------------------------------------------------------------
A-----------------------------------------------------------------------
E-----------------------------------------------------------------------


e--------------------------------------------------------------------12-
B----------12----------12----------12---------12---------12-15(17)------
G-14(16)-----14(16)------14(16)------14(16)-----14(16)------------------
D-----------------------------------------------------------------------
A-----------------------------------------------------------------------
E-----------------------------------------------------------------------


e----------12-----------------------12----------------------------------
B--------12--15p12----------------12--15p12-----------------------------
G-14(16)----------14(16)(14)p12------------14p12------------------------
D------------------------------14---------------14-\\\------------------
A-----------------------------------------------------------------------
E-----------------------------------------------------------------------


e-3p2-0-----------------------------------------------------------------
B-------3p0-------------------------------------------------------------
G-------------0---------------------------------------------------------
D-----------------4---0---2---------------------------------------------
A-----------------------------0--------2------------------2--p0---------
E---------------------------------------------------------------3p0-3---





SEE ALSO 

EL FAROL TAB by Santana



BLACK MAGIC WOMAN TAB by Santana



I LOVE YOU MUCH TOO MUCH TAB by Santana


 

MORE ON GUITAR TABS A-Z