20130204

COMFORTABLY NUMB SOLO TAB (COVER BY THOMAS75S)

Thomas75s plays a cool cover of Pink Floyd - Comfortably Numb guitar solo.
He isn't playing a note for note cover but he puts in some of his own ideas.
The Gibson Les Paul sounds really cool with this Marshall Amp. TAB below.



COMFORTABLY NUMB SOLO TAB

PDF >>

e---14~~------14(15)(14)------------------------------------------------
B---x--------------------15(17)~~------15---14-14-----------------------
G---x-----------------------------------------------14------------------
D--------------------------------------------------------14-------------
A-----------------------------------------------------------------------
E-----------------------------------------------------------------------


e--------------------14(15)(14)-----------------------------------------
B-------------------------------15(17)~~------15---14-------------------
G----------------/14----------------------------------14----------------
D---12~~----\----------------------------------------------14\12--------
A-----------------------------------------------------------------------
E-----------------------------------------------------------------------


e-----------------------------------------------------------------------
B-----------------------------------------------------------------------
G------------/12~~------9(11)---(9)-7~-----11p9-9---\7-7~~--------------
D---11\9---7------------------------------------------------------------
A-----------------------------------------------------------------------
E-----------------------------------------------------------------------



e--------------------------------/15---14\12----------------------------
B--------------------------------------------15\12----------------------
G---9p7---7-9/11-11(12)~~---\----------------------12-------------------
D-------9---------------------------------------------12~~-----10\9-----
A-----------------------------------------------------------------------
E-----------------------------------------------------------------------


e-----------------------------------------------------------------------
B-----------------------------------------------------------------------
G----------------------11(12)(11)(12)(11)(12)~~------9(11)(9)-7---------
D---10p9\7~~~-----------------------------------------------------------
A-----------------------------------------------------------------------
E-----------------------------------------------------------------------


e-----------------------------------------------------------------------
B-----------------------------------------3-3-3-------------------------
G---2/4\2~~-------------------------------2-2-2-------------------------
D-----------------------------------------0-0-0-------------------------
A-----------------------------------------0-0-0-------------------------
E-----------------------------------------------------------------------


e-----------------------------------------------------------------------
B-----------------------------------------------------------------------
G---7---9(11)~~~------------9(11)---(9)p7---9.-9~~--p7-----7'-----------
D-----------------------------------------9------------9----------------
A-----------------------------------------------------------------------
E-----------------------------------------------------------------------


e-----------------------------------------------------------------------
B---------10----10-10~~--h12.--12(15)---(12)p10-12(15)(12)~~----\-------
G---/11------11---------------------------------------------------------
D-----------------------------------------------------------------------
A-----------------------------------------------------------------------
E-----------------------------------------------------------------------


e-----------------------------------------------------------------------
B-----------------------------------7---10p7----------------------------
G-----9.--7.--9(11)(9)p7-----------7---------9(11)(9)p7-----------------
D---7--------------------9~~------9---------------------9~~---\---------
A-----------------------------------------------------------------------
E-----------------------------------------------------------------------


e---------------------------------------7--9-9(10)--(9)p7----7----------
B--------------------------------------7------------------10---10(12)---
G------------------7'-----------------7---------------------------------
D------7-7~--9p7-------9p7-9~~------------------------------------------
A---/9-----------9------------------------------------------------------
E-----------------------------------------------------------------------


e-----------------------7-----------------------------------------------
B---(10)p7------------7---10p7---7--------------------------------------
G----------9~~--9(11)----------9---9p7-9p7---7--------------------------
D------------------------------------------9----------------------------
A----------------------------------------------9-8-7\5---5~-------------
E------------------------------------------------------7----------------


e--------------------------7--------------------------------------------
B------------------------------10p7-------------------------------------
G---/7.--7.--7~~--\--9(11)----------9.--(11)(9)p7---9p7-----7-----------
D-------------------------------------------------------9-----9p7-------
A-----------------------------------------------------------------------
E-----------------------------------------------------------------------


e-----------------------------------------------------------------------
B---------------------------------7-------------------------------------
G----------------------------0.-------9p7---------------7'--------------
D---9p7-----------------------------------7---7'--9p7-------9p7---7'----
A-------9---9\7p5---5~~---------------------9---------9---------9-------
E-----------------7-----------------------------------------------------


e-----------7-----------------------------------------------------------
B---------7---10p7----7-------------------------------------------------
G---9(11)----------10---10p9p7-9p7---7----------------------------------
D----------------------------------9---9-7-9p7---7----------------------
A----------------------------------------------9---9-8-7----------------
E--------------------------------------------------------10-7~~---\-----
                                                     x x x

e-----------------------------------------------------------------------
B-----------------------------------------------------------------------
G-----------------------------------------------------------------------
D-----------------------------------------------------------------------
A---2---4---4(5)---(4)p2-4---p2p0-2(4)------(2)(4)------2---0-----------
E-----------------------------------------------------------------------


e-----------------------------------------------------------------------
B-----------------------------------------------------------------------
G-----------------------------------------------------------------------
D-----------------------------------------------------------------------
A-------0---2--/5-----------2-------------------------------------------
E---2'--------------2(3)(2)-0-------------------------------------------


e-----------------------------------------------------------------------
B---0----3p0h5p0h7p0h5p0h7p0h8p0h7p0h8p0h10p0h8p0h7p0h8p0h7~~-----------
G-----------------------------------------------------------------------
D-----------------------------------------------------------------------
A-----------------------------------------------------------------------
E-----------------------------------------------------------------------


e-----------------------7-9-10-9h10p9p7----7-9-10-9h10p9p7--------------
B---10(12)(10)(12)~~--------------------10-----------------10-----------
G-----------------------------------------------------------------------
D-----------------------------------------------------------------------
A-----------------------------------------------------------------------
E-----------------------------------------------------------------------


e---7-9-10(12)------10-9(10)(9)-----------------------------------------
B-------------------------------10--------------------------------------
G----------------------------------9---6(7)(6)--------------------------
D----------------------------------------------7------------------------
A-----------------------------------------------------------------------
E-----------------------------------------------------------------------


e------------------------------------------7-7------10-10-7----7--------
B-----------------------7-7-----10-10-7h10-----10-7---------10----------
G-------7-7-----9-9-7h9-----9-7-----------------------------------------
D---x-x-----9-7---------------------------------------------------------
A-----------------------------------------------------------------------
E-----------------------------------------------------------------------


e--------------7----------------7----------------7----------------------
B----------------7-10p7-------7---7-10p7-------7---7-10p7---------------
G---9(11)---------------9(11)------------9(11)--------------------------
D-----------------------------------------------------------------------
A-----------------------------------------------------------------------
E-----------------------------------------------------------------------


e-----------7----------------7------------------------------------------
B---------7---7-10p7-------7---7-10p7------10(12)~~---\-----------------
G---9(11)------------9(11)----------------------------------------------
D-----------------------------------------------------------------------
A-----------------------------------------------------------------------
E-----------------------------------------------------------------------


e---/19---21-21(22)~~~-----21(22)---21(22)---21(22)---(21)-21~~~~-\-----
B-----------------------------------------------------------------------
G-----------------------------------------------------------------------
D-----------------------------------------------------------------------
A-----------------------------------------------------------------------
E-----------------------------------------------------------------------


e------------17----------------------------17-14------------------------
B---17(19)------(19)(17)p15-17---15-------x--------15-------------------
G----------------------------------------x------------16~~--------------
D-----------------------------------------------------------------------
A-----------------------------------------------------------------------
E-----------------------------------------------------------------------


e-----------------------------------------------------------------------
B---15---17(19((17)p15--------------------------------------------------
G----------------------16~~-----\--------9(11)(9)p7-----7---------------
D---------------------------------------------------9-------9~~\\-------
A-----------------------------------------------------------------------
E-----------------------------------------------------------------------