20130223

DEEP PURPLE WHEN A BLIND MAN CRIES TAB AND COVER

EVGemini77's guitar cover of Deep Purple - When A Blind Man Cries.
Thanks for sharing this perfect cover.
See the TAB under the video.



DEEP PURPLE WHEN A BLIND MAN CRIES TAB

PDF >>

Intro

e-----------------------------------------------------------------------
B---------------------------------------7.--10(12)----------------------
G------------9(11)~----------------/7.----------------------------------
D-7.--9-----------------7.--9-------------------------------------------
A-----------------------------------------------------------------------
E-----------------------------------------------------------------------


e-----------------------------------------------------------------------
B-10(12).--10.----------------------------------------------------------
G---------------9(11)(9)-7----------------------------------------------
D-------------------------------7.--9----------7-----\------------------
A------------------------------------------7h9-------\------------------
E-----------------------------------------------------------------------


Verse

e-----------------------------------------------------------------------
B----------3------------------------3--------3--------------------------
G-------4-----4---------2--------4-----4--------4-----------------------
D----4--------------2h4-------4-----------4-----------------------------
A-2------------------------2--------------------------------------------
E-----------------------------------------------------------------------



e-------------0------------------------7--------------------------------
B----------2------------------------7-----------------------------------
G-------2------------------------7--------------------------------------
D----2-----------------7.--9--------------------------------------------
A-0---------------------------------------------------------------------
E----------------------5.--7--------------------------------------------


e------------------7------------------------7---------------------------
B---------------7------------------------7------------------------------
G------------7------------------------7---------------------------------
D-7.--9---------------------7.--9---------------------------------------
A-----------------------------------------------------------------------
E-5.--7---------------------5.--7---------------------------------------


e-------------------------------------------7---------------------------
B----------------------------------------7------------------------------
G-------------------------------------7---------------2-----------------
D-9.--11--------------------7.--9-----------------2h4-------------------
A-----------------------------------------------------------------------
E-7.--9---------------------5.--7---------------------------------------


Chorus

e-----------------------------------------------------------------------
B----------3-----------3--------5(7)--~~--------------------------------
G-------4-----4-----4---------------------------------------------------
D----4-----------4------------------------------------------------------
A-2-----------------------0---------------------------------------------
E-----------------------------------------------------------------------


e-------7-----10-----9--10--7-----------0-------------------------------
B----8-----8-------------------8-----------0----------------------------
G-7-------------------------------9-----------0-------------------------
D-----------------------------------------------------------------------
A-----------------------------------------------------------------------
E------------------------------------------------0----------------------


e-------------2---------------------------------------------------------
B----------3-----3------------------------------------------------------
G-------4-----------4-----------7-----------7---------------------------
D----4-----------------4-----7-----7-----7------------------------------
A-2-----------------------5-----------5---------------------------------
E-----------------------------------------------------------------------


e-----------------------------------------------------------------------
B-----------------------------------------------------------------------
G-----------------------------------------------------------------------
D-5----4--------------------9-----------9-------------------------------
A-----------7----5-------9-----9-----9----------------------------------
E---------------------7-----------7-------------------------------------


Solo

e-----------------------------------------------------------------------
B----------------------------------------10-----------------------------
G-7--9(11)-9(11)-9(11)-9(11)-9-(11)---------9(11)(9)-7------------------
D-----------------------------------------------------------------------
A-----------------------------------------------------------------------
E-----------------------------------------------------------------------


e-----------------------------------------------------------------------
B-----------------------------------------------------------------------
G-9(11)-9(11)-9(11)-9-(11)------9(11)(9)-7.--6---7---7(9)----7--6-------
D------------------------------------------------------------------9----
A-----------------------------------------------------------------------
E-----------------------------------------------------------------------


e-----------------------------------------------------7-10-10(12)-------
B-7---10---10(12).--10(12)-10(12)-10-(12)~-------7-10-------------------
G-----------------------------------------------------------------------
D-----------------------------------------------------------------------
A-----------------------------------------------------------------------
E-----------------------------------------------------------------------


e-10-9-7--------------7-------------------------------------------------
B--------7-10-------7---7-----------------------------------------------
G-------------9(11)-------7---9---7h9p7-6~--7~--7(9)~-------------------
D---------------------------9-----------------------------9~--7~--9\----
A-----------------------------------------------------------------------
E-----------------------------------------------------------------------


e-----------------------------------------------------------------------
B-----------------------------------------------------------------------
G----7--9(11)-9(11)-9(11)-9-(11)~------7--9(11)-9(11)-9(11)-9-(11)~-----
D-9---------------------------------9-----------------------------------
A-----------------------------------------------------------------------
E-----------------------------------------------------------------------


e--------10.--------------------10.-------------------------------------
B-10(12)-----10(12)------10(12)-----10(12)------10(12).-10--(12)~-------
G-----------------------------------------------------------------------
D-----------------------------------------------------------------------
A-----------------------------------------------------------------------
E-----------------------------------------------------------------------


e-10(12)--10.--10(12)--10.-10(12)-10.-10(12)~~----10.--7.---------------
B----------------------------------------------------------10.----------
G-----------------------------------------------------------------------
D-----------------------------------------------------------------------
A-----------------------------------------------------------------------
E-----------------------------------------------------------------------


e-----------------------------------------------------------------------
B--------------------10.------------------------------------------------
G-9(11).--9(11)~~--------9(11)(9)-7.--9(11)(9)-7---7~-------------------
D------------------------------------------------9----------------------
A-----------------------------------------------------------------------
E-----------------------------------------------------------------------


e------------------------------12(14).--12(14)(12)-10.------------------
B------------------10(12)-------------------------------12~-------------
G-9(11)-9--7---7.-------------------------------------------------------
D------------9----------------------------------------------------------
A-----------------------------------------------------------------------
E-----------------------------------------------------------------------


Verse 2

e-----------------2-----------------------0-----------------------2-----
B--------------3-----3-----------------2-----2-----------------3--------
G-----------4-----------4-----------2-----------2-----------4-----------
D--------4-----------------------2-----------------------4--------------
A-0.--2--------------------2--0--------------------0--2-----------------
E-----------------------------------------------------------------------


e------------------7------------------------7---------------------------
B---------------7------------------------7------------------------------
G------------7------------------------7---------------------------------
D-7.--9---------------------7.--9---------------------------------------
A-----------------------------------------------------------------------
E-5.--7---------------------5.--7---------------------------------------


e-------------------------------------------7---------------------------
B----------------------------------------7------------------------------
G-------------------------------------7-----------------7--9p7----------
D-9.--11--------------------7.--9-----------------7--9------------------
A---------------------------------------------7h9-----------------------
E-7.--9---------------------5.--7---------------------------------------


Chorus

e-----------------------------------------------------------------------
B----------3-----------3--------5(7)--~~-----5(7)(5)-3.-----------------
G-------4-----4-----4---------------------------------------------------
D----4-----------4------------------------------------------------------
A-2-----------------------0---------------------------------------------
E-----------------------------------------------------------------------


e-------7-----10-----9--10--7-----------0-------------------------------
B----8-----8-------------------8-----------0----------------------------
G-7-------------------------------9-----------0-------------------------
D-----------------------------------------------------------------------
A-----------------------------------------------------------------------
E------------------------------------------------0----------------------


e-------------2---------------------------------------------------------
B----------3-----3------------------------------------------------------
G-------4-----------4-----------7-----------7---------------------------
D----4-----------------4-----7-----7-----7------------------------------
A-2-----------------------5-----------5---------------------------------
E-----------------------------------------------------------------------


e-----------------------------------------------------------------------
B-----------------------------------------------------------------------
G-----------------------------------------------------------------------
D-5----4--------------------9-----------9-------------------------------
A-----------7----5-------9-----9-----9----------------------------------
E---------------------7-----------7-------------------------------------


Solo at the end

e----------------------------------12(14)-12--10-12(14)~~~--------------
B-----------------------------------------------------------------------
G-7--9(11)-9(11)-9(11)-9-(11)~------------------------------------------
D-----------------------------------------------------------------------
A-----------------------------------------------------------------------
E-----------------------------------------------------------------------


e---7-10(12)------10-7--------------------------------------------------
B-7--------------------7-10-------7---10--------------------------------
G---------------------------9(11)--------9(11)~-------------------------
D-----------------------------------------------------------------------
A-----------------------------------------------------------------------
E-----------------------------------------------------------------------