20130201

FAITH NO MORE EASY TAB - SOLO


Short guitar lesson how to play the great solo of Faith No More - Easy.
Use heavy distortion and some delay to get the right sound.
TAB helps below.



FAITH NO MORE EASY TAB


e-----------------------------------------------------------------------
B-----------------------------------------------------------------------
G---------------13---------------------//(22).--------------------------
D-----------------------------------------------------------------------
A-13(14)(13)------------------------------------------------------------
E------------16---------------------------------------------------------


e-----------------------------------------------------------------------
B-----------------------------------------------------------------------
G-----------------------------------------------------------------------
D-----------------------------------------------------------------------
A-13(14)(13)------------------------------------------------------------
E------------16-16------------------16---13---\\------------------------



e-----------------------------------------------------------------------
B---------------16(18).-------------------------------------------------
G------------------------15(17).--13.-----------------------------------
D---------------------------------------16.--15.--13------15p13---------
A-13(14)(13)-------------------------------------------15-------15------
E------------16---------------------------------------------------------


e-----------------------------------------------------------------------
B-----------------------------------------------------------------------
G------------------------------13----------------------------//(22).----
D-----------------------------------------------------------------------
A-15~-~-~-~-~.---13(14)(13)---------------------------------------------
E---------------------------16------------------------------------------


e-----------------------------------------------------------------------
B-----------------------------------------------------------------------
G-----------------------------------------------------------------------
D-----------------------------------------------------------------------
A-13(14)(13)------------------------------------------------------------
E------------16-16---------------(16)---13---\\-------------------------


e-----------------------------------------------------------------------
B---------------16(18).---16.---16(18).--------------16.----------------
G-----------------------------------------15--(17)---------(17).--------
D-----------------------------------------------------------------------
A-13(14)(13)------------------------------------------------------------
E------------16---------------------------------------------------------


e-----------------------------------------------------------------------
B-----------------------------------------------------------------------
G-(17)(15)p13-----------------------------------------------------------
D-------------15--------------------13h15-13h15------13h15-13~~~--------
A-----------------------------------------------------------------------
E-----------------------------------------------------------------------


e-----------------------------------------------------------------------
B-16(18)---16~~~~~~~~~~\\-----------------------------------------------
G-----------------------------------------------------------------------
D-----------------------------------------------------------------------
A-----------------------------------------------------------------------
E-----------------------------------------------------------------------