20130208

DENIS SALGADO KISS FROM A ROSE TAB


Denis Salgado plays a cool cover of Seal - Kiss From A Rose with his Ibanez guitar.
Use some delay and hard distortion to get that cool sound.
Denis Salgado has a band check them out here: The Outside Illusion >>



DENIS SALGADO KISS FROM A ROSE TAB

PDF >>

Intro

e-----------------------------------------------------------------------
B-----12-13~-----15p13.--12---10.--8h10-10~----p8/10~-------------------
G-/14-------------------------------------------------------------------
D-----------------------------------------------------------------------
A-----------------------------------------------------------------------
E-----------------------------------------------------------------------


e-----------------------------------------------------------------------
B-----12-13~-----15p13.--12\8---10/12.--10~-----------------------------
G-/14-------------------------------------------------------------------
D-----------------------------------------------------------------------
A-----------------------------------------------------------------------
E-----------------------------------------------------------------------


e-----------------------------------------------------------------------
B-----12-13~-----15p13.--12---10.--8h10-10~----p8/10~-------------------
G-/14-------------------------------------------------------------------
D-----------------------------------------------------------------------
A-----------------------------------------------------------------------
E-----------------------------------------------------------------------




e-----------------------------------------------------------------------
B-----12-13~-----15p13.--12\8---10/12.--10~-----------------------------
G-/14-------------------------------------------------------------------
D-----------------------------------------------------------------------
A-----------------------------------------------------------------------
E-----------------------------------------------------------------------


Verse 1

e-----------------------------------------------------------------------
B-----------------------------------------------------------------------
G-6(7)(6)~-----6(7)(6)(7)(6)-7-9~------9-7/9~--7.--6-9~-----------------
D----------------------------------7------------------------------------
A-----------------------------------------------------------------------
E-----------------------------------------------------------------------


e-----------------------------------------------------------------------
B-9(10)(9)~-------------------------------------------------------------
G---------------9----------7.--9~------9-7/9~----7.--6-9-4/6~-----------
D----------------9/11~-------------7------------------------------------
A-----------------------------------------------------------------------
E-----------------------------------------------------------------------


e-9(10)(9)~-------------------------------------------------------------
B---------------10--------7.--7(8)---(7)(8)(7)p5.--7--p5.---------------
G------------------9~--------------------------------------7---/9~------
D-----------------------------------------------------------------------
A-----------------------------------------------------------------------
E-----------------------------------------------------------------------


e-----------------------------------------------------------------------
B-9(10)(9)--------9(10)(9)----------------------------------------------
G----------6~--------------5~---------/5~---7p5.--4~--------------------
D---------------------------------7.------------------7~--5~------------
A-----------------------------------------------------------------------
E-----------------------------------------------------------------------


e-----------------------------------------------------------------------
B-----------------------------------------------------------------------
G-/5~---7p5.--4~----------/6~-------------------------------------------
D-----------------7~--5~------------------------------------------------
A-----------------------------------------------------------------------
E-----------------------------------------------------------------------


Chorus

e-/19(20)---------------------------------------------------------------
B-----------20(22)~--------(22)(20)p17-20p17-/20\17-20-17---------------
G-----------------------------------------------------------------------
D-----------------------------------------------------------------------
A-----------------------------------------------------------------------
E-----------------------------------------------------------------------


e-----------------------------------------------------------------------
B-20(22)~--20~--17------------------------------------------------------
G------------------19(21)(19)~--17--/16-14~\----------------------------
D-----------------------------------------------------------------------
A-----------------------------------------------------------------------
E-----------------------------------------------------------------------


e-----------------------------------------------------------------------
B-/20(22)---(20)---20p17-/20\17-20-17-20(22)~--20~--17------------------
G------------------------------------------------------19(21)(19)~------
D-----------------------------------------------------------------------
A-----------------------------------------------------------------------
E-----------------------------------------------------------------------


e-----------------------------------------------------------------------
B-----------------------------------------------------------------------
G-17-19-18~--\----------------------------------------------------------
D-----------------------------------------------------------------------
A-----------------------------------------------------------------------
E-----------------------------------------------------------------------


e-----------------------------------------------------------------------
B-/20(22)---20(22)(20)-17~--/20(22)---20(22)(20)-17---------------------
G---------------------------------------------------19~-----------------
D-----------------------------------------------------------------------
A-----------------------------------------------------------------------
E-----------------------------------------------------------------------


e-----------------------------------------------------------------------
B----20(22)---20(22)(20)-17---------------------------------------------
G-17------------------------19(21)(19)~--17\16-14~---\------------------
D-----------------------------------------------------------------------
A-----------------------------------------------------------------------
E-----------------------------------------------------------------------


Intro 1x


Verse 2

e-----------------------------------------------------------------------
B-14(15)(14)~-----14(15)(14)(15)(14)--15-17--------17-15(17)------------
G---------------------------------------------14------------------------
D-----------------------------------------------------------------------
A-----------------------------------------------------------------------
E-----------------------------------------------------------------------


e------------------------16(17)(16)-------------------------------------
B-(17)(15)---p14-17~---------------------17-----------------------------
G-------------------------------------------16(18)~---------------------
D-----------------------------------------------------------------------
A-----------------------------------------------------------------------
E-----------------------------------------------------------------------


e-----------------------------------------------------------------------
B-15.--17---p15.--17.--20---p17---20---(22)~--\-------------------------
G-----------------------------------------------------------------------
D-----------------------------------------------------------------------
A-----------------------------------------------------------------------
E-----------------------------------------------------------------------


e-----------------------------------------------------------------------
B-8/10\8------------------------5---------------------------------------
G--------7/9\5-7~-----5-7-5-7-8---5'------------------------------------
D------------------------------------7---5-6-7~--\----------------------
A--------------------------------------7--------------------------------
E-----------------------------------------------------------------------
                      x x x x x x    x x x x

e-----------------------------------------------------------------------
B-----------------------------------------------------------------------
G----4-----4-----4--4(5)(4)-2/4~----------------------------------------
D-7-----7-----7---------------------------------------------------------
A-----------------------------------------------------------------------
E-----------------------------------------------------------------------
  x     x     x

e-----------------------------------------------------------------------
B--------------------9(10)(9)-------------------------------------------
G-13(14)(13)------------------5~---------/5~---7p5.--4~-----------------
D------------11~---------------------7.------------------7~--5~---------
A-----------------------------------------------------------------------
E-----------------------------------------------------------------------


e-----------------------------------------------------------------------
B-----------------------------------------------------------------------
G-/5~---7p5.--4~----------/6~-------------------------------------------
D-----------------7~--5~------------------------------------------------
A-----------------------------------------------------------------------
E-----------------------------------------------------------------------


Chorus 2

e-/19(20)---------------------------------------------------------------
B-----------20(22)~--------(22)(20)p17-20p17-/20\17-20-17---------------
G-----------------------------------------------------------------------
D-----------------------------------------------------------------------
A-----------------------------------------------------------------------
E-----------------------------------------------------------------------


e-----------------------------------------------------------------------
B-20(22)~--20~--17------------------------------------------------------
G------------------19(21)(19)~--17--/16-14~\----------------------------
D-----------------------------------------------------------------------
A-----------------------------------------------------------------------
E-----------------------------------------------------------------------


e-----------------------------------------------------------------------
B-/20(22)---(20)---20p17-/20\17-20-17-20(22)~--20~--17------------------
G------------------------------------------------------19(21)(19)~------
D-----------------------------------------------------------------------
A-----------------------------------------------------------------------
E-----------------------------------------------------------------------


e-----------------------------------------------------------------------
B-----------------------------------------------------------------------
G-17-19-18~--\----------------------------------------------------------
D-----------------------------------------------------------------------
A-----------------------------------------------------------------------
E-----------------------------------------------------------------------


e-----------------------------------------------------------------------
B-/20(22)---20(22)(20)-17~--/20(22)---20(22)(20)-17---------------------
G---------------------------------------------------19~-----------------
D-----------------------------------------------------------------------
A-----------------------------------------------------------------------
E-----------------------------------------------------------------------


e-----------------------------------------------------------------------
B----20(22)---20(22)(20)-17---------------------------------------------
G-17--------------------------19(21)------17-16-14~---\-----------------
D-----------------------------------------------------------------------
A-----------------------------------------------------------------------
E-----------------------------------------------------------------------


Intro 1x


Bridge

e-----------------------------------------------------------------------
B-----12-13~-----15p13.--12--\8------12-13------15p13.--12--\8----------
G-/14-------------------------------------------------------------------
D-----------------------------------------------------------------------
A-----------------------------------------------------------------------
E-----------------------------------------------------------------------


e-----------------------------------------------------------------------
B----------/15~-----13(15).--(15)(13)--p12-10~-----8--\7-8~-------------
G-/12~------------------------------------------------------------------
D-----------------------------------------------------------------------
A-----------------------------------------------------------------------
E-----------------------------------------------------------------------


e-----------------------------------------------------------------------
B-15~-----13(15).--(15)(13)--p12-----------12-12~-----------------------
G--------------------------------14---12--------------------------------
D-----------------------------------------------------------------------
A-----------------------------------------------------------------------
E-----------------------------------------------------------------------


e-----------------------------------------------------------------------
B-12/15~--------17/19.--17---p15-13---12---15-13(15)--------15~---------
G-----------------------------------------------------------------------
D-----------------------------------------------------------------------
A-----------------------------------------------------------------------
E-----------------------------------------------------------------------


e-----------------------------------------------------------------------
B-17(19).---17.---15.---13---12---13.--/14~-----------------------------
G-----------------------------------------------------------------------
D-----------------------------------------------------------------------
A-----------------------------------------------------------------------
E-----------------------------------------------------------------------


Verse 3

e-----------------------------------------------------------------------
B-14(15)(14)~-----14(15)(14)(15)(14)--15-17--------17-15(17)------------
G---------------------------------------------14------------------------
D-----------------------------------------------------------------------
A-----------------------------------------------------------------------
E-----------------------------------------------------------------------


e------------------------16(17)(16)-------------------------------------
B-(17)(15)---p14-17~---------------------17-----------------------------
G-------------------------------------------16(18)~---------------------
D-----------------------------------------------------------------------
A-----------------------------------------------------------------------
E-----------------------------------------------------------------------


e-----------------------------------------------------------------------
B-15.--17---p15.--17.--20---p17---20---(22)~--\-------------------------
G-----------------------------------------------------------------------
D-----------------------------------------------------------------------
A-----------------------------------------------------------------------
E-----------------------------------------------------------------------


e-------------------------------------12.-------------------------------
B-13.--15~--p13.--15.--13.--15.--16.------13'---------------------------
G----------------------------------------------14.------12-13-14~-------
D---------------------------------------------------14------------------
A-----------------------------------------------------------------------
E-----------------------------------------------------------------------


e-----------------------------------------------------------------------
B---12--p10--h12--p10---12--12(13)---12.--10h12~------------------------
G-9---------------------------------------------------------------------
D-----------------------------------------------------------------------
A-----------------------------------------------------------------------
E-----------------------------------------------------------------------


e-16(17)(16)---------16(17)(16)-----------------------------------------
B------------14~----------------13~---\10---13~--15p13.--12------12.----
G------------------------------------------------------------14.--------
D-----------------------------------------------------------------------
A-----------------------------------------------------------------------
E-----------------------------------------------------------------------


e-----------------------------------------------------------------------
B-13~--15p13.---12---\10---\8---/14~------------------------------------
G-----------------------------------------------------------------------
D-----------------------------------------------------------------------
A-----------------------------------------------------------------------
E-----------------------------------------------------------------------


Chorus 3

e-/19(20)(19)p17--------------------------------------------------------
B----------------20(22)~--------(22)(20)p17-20p17-/20\17-20-17----------
G-----------------------------------------------------------------------
D-----------------------------------------------------------------------
A-----------------------------------------------------------------------
E-----------------------------------------------------------------------


e-----------------------------------------------------------------------
B-20(22)~--20~--17------------------------------------------------------
G------------------19(21)(19)~--17--/16-14~\----------------------------
D-----------------------------------------------------------------------
A-----------------------------------------------------------------------
E-----------------------------------------------------------------------


e-----------------------------------------------------------------------
B-/20(22)---(20)---20p17-/20\17-20-17-20(22)~--20~--17------------------
G------------------------------------------------------19(21)(19)~------
D-----------------------------------------------------------------------
A-----------------------------------------------------------------------
E-----------------------------------------------------------------------


e-----------------------------------------------------------------------
B-----------------------------------------------------------------------
G-17-19-18~--\----------------------------------------------------------
D-----------------------------------------------------------------------
A-----------------------------------------------------------------------
E-----------------------------------------------------------------------


e-----------------------------------------------------------------------
B-/20(22)---20(22)(20)-17~--/20(22)---20(22)(20)-17---------------------
G---------------------------------------------------19~-----------------
D-----------------------------------------------------------------------
A-----------------------------------------------------------------------
E-----------------------------------------------------------------------


e-----------------------------------------------------------------------
B----20(22)---20(22)(20)-17---------------------------------------------
G-17------------------------19(21)(19)~--17\16-14~---\------------------
D-----------------------------------------------------------------------
A-----------------------------------------------------------------------
E-----------------------------------------------------------------------


Chorus 4

e-----------------------------------------------------------------------
B-20----------20----------20----------20----------20--------------------
G-19(21)~-----(21)~-------(21)~-------(21)~-------(21)~-----------------
D-----------------------------------------------------------------------
A-----------------------------------------------------------------------
E-----------------------------------------------------------------------


e-----------------------------------------------------------------------
B-20----------20----------20----------20----------20------20--\---------
G-(21)~-------(21)~-------(21)~-------(21)~-------(21)~---(21)\---------
D-----------------------------------------------------------------------
A-----------------------------------------------------------------------
E-----------------------------------------------------------------------


e-----------------------------------------------------------------------
B-20-17-/20\17-20-17-20(22)~--20~--17-----------------------------------
G-------------------------------------19(21)(19)~-----17-19-18~--\------
D-----------------------------------------------------------------------
A-----------------------------------------------------------------------
E-----------------------------------------------------------------------


e-----------------------------------------------------------------------
B-/20(22)---20(22)(20)-17~--/20(22)---20(22)(20)-17---------------------
G---------------------------------------------------19~-----------------
D-----------------------------------------------------------------------
A-----------------------------------------------------------------------
E-----------------------------------------------------------------------


e-----------------------------------------------------------------------
B----20(22)------(20)p17------------------------------------------------
G-17---------------------19(21)------(19)---17-16-14~--\----------------
D-----------------------------------------------------------------------
A-----------------------------------------------------------------------
E-----------------------------------------------------------------------


Outro

e-----------------------------------------------------------------------
B-----12-13~-----15p13.--12---10.--8h10-10~----p8/10~-------------------
G-/14-------------------------------------------------------------------
D-----------------------------------------------------------------------
A-----------------------------------------------------------------------
E-----------------------------------------------------------------------


e-----------------------------------------------------------------------
B-----12-13~-----15p13.--12\8---10/12.--10~-----------------------------
G-/14-------------------------------------------------------------------
D-----------------------------------------------------------------------
A-----------------------------------------------------------------------
E-----------------------------------------------------------------------


e-----------------------------------------------------------------------
B-15(17).---(17)(15)---13.---15(17)------(17)(15)-13-12~----------------
G-----------------------------------------------------------------------
D-----------------------------------------------------------------------
A-----------------------------------------------------------------------
E-----------------------------------------------------------------------


e-15--------------------------------------------------------------------
B----15(17)------(17)(15)p13.--15'--13~-\-------------------------------
G-----------------------------------------------------------------------
D-----------------------------------------------------------------------
A-----------------------------------------------------------------------
E-----------------------------------------------------------------------


e-----------------------------------------------------------------------
B-12(13)---(12)(13)(12)p10.---------------------------------------------
G----------------------------------------/7(9)~-------------------------
D-----------------------------------------------------------------------
A-----------------------------------------------------------------------
E-----------------------------------------------------------------------


e-5---------------------------------------------------------------------
B---8-5-----------------------------------------------------------------
G-------7(9)-7-5---7---5h7.-5~------------------------------------------
D----------------7---7--------------7---5h7p5---------------------------
A-------------------------------------7-------7-5(7)(5)~----3-----------
E-------------------------------------------------------------5-3(5)----