20130223

PINK FLOYD WISH YOU WERE HERE TAB (SOLOS)


David Gilmour playing Wish You Were Here live. It's just brilliant.
See the TAB of the intro riff and the intro solo below.




PINK FLOYD WISH YOU WERE HERE TAB

PDF >>

Intro

e-----------------3-----3---3-3-3-------------3---3-3---3---------------
B-----------------3-----3---3-3-3-------------3---3-3---3---------------
G-----------------2-----2---2-2-2-0-----------0---0-0---0---------------
D---------0---2---2-----2---2-2-2-----2---0---0---0-0---0---------0-----
A-----0h2---------0-----0---0-0-0-------------2---2-2---2-----0h2-------
E-3-------------------------------------------3---3-3---3-3-------------


e------3-----3---3-3-3-------------3-----3---3--------------------------
B------3-----3---3-3-3-------------3-----3---3--------------------------
G------2-----2---2-2-2-0-----------0-----0---0--------------------------
D--2---2-----2---2-2-2-----2---0---0-----0---0---------0----------------
A------0-----0---0-0-0-------------2-----2---2-----0h2------------------
E----------------------------------3-----3---3-3------------------------


e------3-3-3---3-3---3-----------------3-3-3---3-3---3-3-3--------------
B------3-3-3---3-3---3-----------------3-3-3---3-3---3-3-3--------------
G------2-2-2---2-2---2-----------------2-2-2---2-2---2-2-2--------------
D--2---2-2-2---2-2---2-2---0-----------2-2-2---2-2---2-2-2-----0--------
A------0-0-0---0-0---0---------2---0---0-0-0---0-0---0-0-0-0h2----------
E-----------------------------------------------------------------------



e------3---3-3---3-----------------3-3-3---3-3---3-3-3-3-3-3-3----------
B------3---3-3---3-----------------3-3-3---3-3---3-3-3-3-3-3-3----------
G------2---2-2---2-----------------2-2-2---2-2---2-2-2-2-2-2-2----------
D--2---2---2-2---2-0h2-0-----------2-2-2---2-2---2-2-2-2-2-2-2----------
A------0---0-0---0---------2---0---0-0-0---0-0---0-0-0-0-0-0-0----------
E-----------------------------------------------------------------------


e-3---3-3-3-----3---3-3-3-3-3-3---3-3-3---3-3---3-3---------------------
B-3---3-3-3-----3---3-3-3-3-3-3---3-3-3---3-3---3-3---------------------
G-0---0-0-0-----0---0-0-0-0-0-0---0-0-0---0-0---0-0---------------------
D-0---0-0-0-----0---0-0-0-0-0-0---0-0-0---0-0---0-0-------0-------------
A-2---2-2-2-----2---2-2-2-2-2-2---2-2-2---2-2---2-2---0h2---------------
E-3---3-3-3-----3---3-3-3-3-3-3---3-3-3---3-3---3-3---------------------


Intro solo

e-----------------------------------------------------------------------
B-----3------5---3------------------------------------------------------
G-2/4----------4--------4p2p0-------------------------------------------
D-----------------------------0-------------0-0-------------------------
A---------------------------------------0h2-----------------------------
E-----------------------------------------------------------------------


e-3/5---\3.-------------------------------------------------------------
B-3/5---\3.---3/5.---3--------3/5.---3----------------------------------
G-------------2/4.---2---p0---2/4.---2p0-2/4----------------------------
D----------------------------------------3/5----------------------------
A-----------------------------------------------------------------------
E-----------------------------------------------------------------------


e-----------------------------------------------------------------------
B-----3---5------(7)(5)p3---3.----------------3-5-----------------------
G-2/4---4-----------------4-----2------4(6)-------4(6).---2~------------
D-----------------------------------------------------------------------
A-----------------------------------------------------------------------
E-----------------------------------------------------------------------


e-----------------------------------------------------------------------
B-----3---5------5(7).---5p3-5.-----------------------------------------
G-2/4---4-------------------------2------4/6\4-2------------------------
D-----------------------------------------------------------------------
A-----------------------------------------------------------------------
E-----------------------------------------------------------------------


and the chords...

e-0-------2-------0-------3-------2-------0-------0-------3-------------
B-1-------3-------1-------3-------3-------1-------1-------3-------------
G-0-------2-------2-------0-------2-------0-------2-------0-------------
D-2-------0-------2-------0-------0-------2-------2-------0-------------
A-3---------------0-------2---------------3-------0-------2-------------
E-------------------------3-------------------------------3-------------