20130301

BILL HALEY ROCK AROUND THE CLOCK TAB AND LESSON

Ric Tester's guitar lesson how to play Bill Haley - Rock Around The Clock.
He shows us clearly how to play the intro, the verse and the solo parts and also explains everything you should know about Rock and Roll. 
TAB helps below.  


BILL HALEY ROCK AROUND THE CLOCK TAB

PDF >>

Intro

e-5-5.--5.--------9--9.---9.-------12.------12.-------12-12.------------
B-5-5.--5.-------10-10.--10.-------12.------12.-------12-12.------------
G-6-6.--6.--------9--9.---9.-------13.------13.-------13-13.------------
D-7-7.--7.-------11-11.--11.-------14.------14.-------14-14.------------
A-----------------------------------------------------------------------
E-----------------------------------------------------------------------


Verse

e-5---5---x-5---x-5--\----5---5---x-5---x-5--\--------------------------
B-5---5---x-5---x-5--\----5---5---x-5---x-5--\--------------------------
G-6---6---x-6---x-6--\----6---6---x-6---x-6--\--------------------------
D-7---7---x-7---x-7--\----7---7---x-7---x-7--\--------------------------
A-----------------------------------------------------------------------
E-----------------------------------------------------------------------


e-5---5---x-5---x-5--\----5---5---x-5---x-5--\--------------------------
B-5---5---x-5---x-5--\----5---5---x-5---x-5--\--------------------------
G-5---5---x-5---x-5--\----6---6---x-6---x-6--\--------------------------
D-4---4---x-4---x-4--\----7---7---x-7---x-7--\--------------------------
A-5---5---X-5---X-5-----------------------------------------------------
E-----------------------------------------------------------------------



e-7---7---x-7---x-7--\----5---5---x-5---x-5--\--------------------------
B-7---7---x-7---x-7--\----5---5---x-5---x-5--\--------------------------
G-7---7---x-7---x-7--\----6---6---x-6---x-6--\--------------------------
D-6---6---x-6---x-6--\----7---7---x-7---x-7--\--------------------------
A-7---7-----7-----7-----------------------------------------------------
E-----------------------------------------------------------------------


Finish Off

e-5--5-5--5-3--3-3--3-2--2-2--2-1--1-1--1-0.----0-2-4-5.---5------------
B----------------------------------------------------------5------------
G----------------------------------------------------------6------------
D----------------------------------------------------------7------------
A-----------------------------------------------------------------------
E-----------------------------------------------------------------------


Solo

e-----------------------------------------------------------------------
B-5-5-5-5-7-7-5-5-8-8-5-5-7-7-0-0-5-5-5-5-7-7-5-5-8-8-5-5-7-7-0-0-------
G-----------------------------------------------------------------------
D-----------------------------------------------------------------------
A-----------------------------------------------------------------------
E-----------------------------------------------------------------------


e-----------------------------------------------------------------------
B-5-5-5-5-7-7-5-5-8-8-5-5-7-7-0-0--8-7-5-5-8-7-5-5-8-7-5-5-8-7-5-5------
G-----------------------------------------------------------------------
D-----------------------------------------------------------------------
A-----------------------------------------------------------------------
E-----------------------------------------------------------------------


e-7---7(8)(7)-5---7---7(8)(7)-5---7---7(8)(7)-5---7---7(8)(7)-5---------
B---------------7---------------7---------------7---------------7-------
G-----------------------------------------------------------------------
D-----------------------------------------------------------------------
A-----------------------------------------------------------------------
E-----------------------------------------------------------------------


e-----------------------------------------------------------------------
B-------------5-7---6-5-------------------------------------------------
G-6.--6.--5h6-------------8-7---6.--------------------------------------
D-----------------------------------------------------------------------
A-----------------------------------------------------------------------
E-----------------------------------------------------------------------


e-7-6-5-4---------------------------------------------------------------
B---------7-6-5-4-------------------------------------------------------
G-----------------7-6-4-4-----------------------------------------------
D-------------------------7-7-6-----------------------------------------
A-------------------------------7-7-7-5-4-------------------------------
E-----------------------------------------7-7-5-4-4-4-3-2-0-0-0-0-------


e-----------------------------------------------------------------------
B-----------------------------------------------------------------------
G-----------------------------------------------------------------------
D-------------2---2-4---2-------------2---2-4---2-----------------------
A-0---0-3h4-4-------------0---0-3h4-4-----------------------------------
E-----------------------------------------------------------------------