20130302

BOB MARLEY STIR IT UP TAB - SOLO


Bob Marley - Stir It Up guitar solo cover for all the reggae fans.
The solo starts at 3:26 in the album version.
See the TAB below.



BOB MARLEY STIR IT UP SOLO TAB

PDF >>

e-----------------12---------12\----------------------------------------
B------10h12/14--------------14\----------------------------------------
G-9h11---------------------------------------2'-------------------------
D---------------------------------------4.--------4.---2~---------------
A-----------------------------------------------------------------------
E-----------------------------------------------------------------------


e-----------------------------5------7----------------------------------
B--------5~-----------5-5h7---------------------------------------------
G-4/6-------------------------------------------------------------------
D-----------------------------------------------------------------------
A-----------------------------------------------------------------------
E-----------------------------------------------------------------------


e-5h7-5---5------5--------------5---------------------------------------
B-------7--------5h7.---5---5---5h7.---5---5----------------------------
G-------------------------6--------------6------------------------------
D-----------------------------------------------------------------------
A-----------------------------------------------------------------------
E-----------------------------------------------------------------------



e-----------------------------------------------------------------------
B-----------------------------------------------------------------------
G-4h6-4-2-----2---------------------------------------------------------
D---------4-2---4-2---2'---4.-------------------------------------------
A-------------------4-----------2h4-2-----------------------------------
E-------------------------------------5-2-5'---0.-----------------------


e-----------------------------------------------------------------------
B-----------------------------------------------------------------------
G-----------------------------------------------2-----2-----2-----------
D---------------------------------------2-4---4-----4-----4-------------
A---------------------------------0-2h4---------------------------------
E-0-0h2---5.---5-2-5/7--------------------------------------------------


e-----------------------------7-----5-----7-----5-----7-----5-----------
B-------5-----------------7------7-----7-----7-----7-----7--------------
G-2/4h6-----4-4h6-4-----------------------------------------------------
D-------------------7-4-------------------------------------------------
A-----------------------------------------------------------------------
E-----------------------------------------------------------------------


(favourite part)

e-5-------5-------5---5---5-----5-5-----5-5-----5-5-----5-5-----5-------
B-7-5---5-7-5---5-7-5-7-5-5h7-----5h7-----5h7-----5h7-----5h7-----------
G-----6-------6---------------------------------------------------------
D-----------------------------------------------------------------------
A-----------------------------------------------------------------------
E-----------------------------------------------------------------------


e-5---------------------------------------------------------------------
B-5h7---5---5-5---------------------------------------------------------
G---------6---4h6---4-2-4-2-2-------------------------------------------
D---------------------------2h4---2-------------------------------------
A-----------------------------------4-2-0-2-0---0-----------------------
E---------------------------------------------2--------2-0.-------------


e-----------------------9.--10.--9h10p9-12~-----10.--9h10p9-------------
B-----------5~~---------------------------------------------10---10-----
G-----2h4/6-------------------------------------------------------------
D-2-4-------------------------------------------------------------------
A-----------------------------------------------------------------------
E-----------------------------------------------------------------------


e-----------------------------------------------------------------------
B--------------9----9------9------9-------------------------------------
G-/9~-----11-----11-----11-----11---------------------------------------
D------------------------------------------9-11-9------9.--11.----------
A-------------------------------------9-12----------12------------------
E-----------------------------------------------------------------------


e-----------------------------------------------------------------------
B---------------9------9---------------9.---9--------------9.-----------
G-9.--11.--9-11-----11--------------11.--11.--11-9----9h11--------------
D--------------------------------------------------11.------------------
A-----------------------------------------------------------------------
E-----------------------------------------------------------------------


e-----------------------------------------------------------------------
B-----------------------------------------------------------------------
G---------------------2---4---2---1-2-----------------------------------
D-4---2---4-2---2-4---4---6---4---2-4-----------------------------------
A-------------4-----4-------------------0-------------------------------
E-----------------------------------------------------------------------


e--------------------------------------------------5.-5.----------------
B--------------------------------5h7---5---5---5-7----------------------
G-2.--2.--5-6-2---2---5h6-7--------------7------------------------------
D---------------4-------------------------------------------------------
A-----------------------------------------------------------------------
E-----------------------------------------------------------------------


e-8-9-5---5-------------------------------------------------------------
B-------5---------------------------------------------------------------
G-----------7-6--------2-----2-2---2---2-----2-2---2h4p2-2---2----------
D---------------7--------2h4-----4-------2h4-----4---------4------------
A-----------------------------------------------------------------------
E-----------------------------------------------------------------------