20130301

CHUCK BERRY JOHNNY B GOODE TAB AND LESSON


MacHardCase teaches us how to play Johnny B. Goode by Chuck Berry.
TAB helps below.



CHUCK BERRY JOHNNY B GOODE TAB

PDF >>


Intro

e-------5/6-6-6--5/6-6-6--6-6-------------------------------------------
B-----6-5/6-6-6--5/6-6-6--6-6--9-8-6------------------------------------
G-6/7--------------------------------6h7----7-7-7--7-7-7--7-7-----------
D----------------------------------------8--8-8-8--8-8-8--8-8-----------
A-----------------------------------------------------------------------
E-----------------------------------------------------------------------


e-------------------------6-----6------6-----6--------------------------
B-----6-8-6---------------6-----6------6-----6--------------------------
G-6/7-7-7-7--5--3-----8'----8'-----8'----8'----8'-----------------------
D------------------5----------------------------------------------------
A-----------------------------------------------------------------------
E-----------------------------------------------------------------------


e-----6-----6----------6-----6-----6---------8-6------------------------
B-----6-----6----------6-----6-----6--9-8-6------9-8-6------------------
G-8'----8'----8'---8'----8'----8'----------------------6h7--------------
D-----------------------------------------------------------------------
A-----------------------------------------------------------------------
E-----------------------------------------------------------------------




e---6-------------------------------------------------------------------
B--6---9-8-6------6-----6-----6-----------------------------------------
G-7-----------8'----8'----8'-----8-6h7----------------------------------
D--------------------------------------8-6------------------------------
A------------------------------------------8--8-8-10108-8-1010-.....----
E---------------------------------------------6-6-6-6-6-6-6-6--.....----


Solo

e---------5/6-6-6-6-6----------6-6-6-6-6---------6---------6------------
B-----6-8-5/6-6-6-6-6----------6-6-6-6-6---------6---------6------------
G-6/7-----------------8-6h7--------------8-6h7-----8-6h7-----8-6h7------
D---------------------------8------------------8---------8---------8----
A-----------------------------------------------------------------------
E-----------------------------------------------------------------------


e------------------------------6---8-6----------------------------------
B-----6-----6-----6-----6--------9-----9-8-6----------------------------
G-8'----8'----8'----8'-----8'----------------6h7------------------------
D-----------------------------------------------------------------------
A-----------------------------------------------------------------------
E-----------------------------------------------------------------------


e-6-6-6-6-------6-6-6-6-6-------6-------6-6-6-6-6-----------------------
B-6-6-6-6-8-6---6-6-6-6-6-8-6---6-8-6---6-6-6-6-6-8-6-------------------
G-------------7---------------7-------7---------------7-----------------
D-----------------------------------------------------------------------
A-----------------------------------------------------------------------
E-----------------------------------------------------------------------


e-----------------------------------------------------------------------
B-8(9)---8(9)---8(9)---8(9)(8)-6---8(9)(8)-6---8(9)(8)-6----------------
G-8(9)---8(9)---8(9)---8(9)(8)-6---8(9)(8)-6---8(9)(8)-6----------------
D----------------------------------------------------------8------------
A-----------------------------------------------------------------------
E-----------------------------------------------------------------------


Solo Part 2

e---------5/6-6-6-6-6----------6-6-6-6-6---------6---------6------------
B-----6-8-5/6-6-6-6-6----------6-6-6-6-6---------6---------6------------
G-6/7-----------------8-6h7--------------8-6h7-----8-6h7-----8-6h7------
D---------------------------8------------------8---------8---------8----
A-----------------------------------------------------------------------
E-----------------------------------------------------------------------


e-----------------------------------------------------------------------
B-8(9)---8(9)---8(9)---8(9)(8)~~~~--------------------------------------
G-8(9)---8(9)---8(9)---8(9)(8)~~~~--------------------------------------
D-----------------------------------------------------------------------
A-----------------------------------------------------------------------
E-----------------------------------------------------------------------


e--------6--------6--------6--------6-----------------------------------
B-9/11.--6-9/11.--6-9/11.--6-9/11.--6-9/11.-----------------------------
G-8/10.----8/10.----8/10.----8/10.----8/10.-----------------------------
D-----------------------------------------------------------------------
A-----------------------------------------------------------------------
E-----------------------------------------------------------------------


e--------6--------6--------6----------6-6-6-8/10-6-9-8-6----------------
B-9/11.--6-9/11.--6-9/11.--6-9/11.----6-6-6------6-9-8-6----------------
G-8/10.----8/10.----8/10.----8/10.-----------------------8-6-8----------
D-----------------------------------------------------------------------
A-----------------------------------------------------------------------
E-----------------------------------------------------------------------


e---------------------------6.--6-6-------------------------------------
B-----6-----6-----6---------6.--6-6-----8(9)(8)-------------------------
G-8'----8'----8'----8-6-------------8-6-8(9)(8)-6-----------------------
D-----------------------8-------------------------8---------------------
A-----------------------------------------------------------------------
E-----------------------------------------------------------------------