20130311

DEEP PURPLE SMOKE ON THE WATER TAB - SOLO


Perfect cover of the legendary Ritchie Blackmore Smoke on the water solo played by hutgreen. Thank you hutgreen! Nice Stratocaster, cool sound, perfect playing and bends. Finally a guitarist who doesn't play with too much distortion.
TAB helps below.


DEEP PURPLE SMOKE ON THE WATER SOLO TAB                    Printable tab here


e-----------------------------------------------------------------------
H-----------------------(15)(13)-11---------11'-------------------------
G---------10---12~------------------12~---------------------------------
D-10/12-----------------------------------------------------------------
A-----------------------------------------------------------------------
E-----------------------------------------------------------------------


e-----------------------------------------------------------------------
H----------------------11.---11(13)------11.---10.---8.---10.-----------
G----------10.---12.----------------------------------------------------
D-10/12.----------------------------------------------------------------
A-----------------------------------------------------------------------
E-----------------------------------------------------------------------


e-----------------------------------------------------------------------
H-8h10p8\6.---8.---6.--------6.---------8.---------8~~------------------
G-----------------------8.--------10.--------10.------------------------
D-----------------------------------------------------------------------
A-----------------------------------------------------------------------
E-----------------------------------------------------------------------


e------------8.---------8~-----8.---------------------------------------
H-8.---11.--------11.---------------8.---11.----------------------------
G-----------------------------------------------------------------------
D-----------------------------------------------------------------------
A-----------------------------------------------------------------------
E-----------------------------------------------------------------------


e----------8------------------------------------------------------------
H--------8---11-10-8----------------------------------------------------
G-10(12)-------------11-10-8----10-8-7-----------------------5.---------
D----------------------------10--------10-8-7-5.---8.---7.--------------
A-----------------------------------------------------------------------
E-----------------------------------------------------------------------


e-----------------------------------------------------------------------
H-----------------------------------------------------------------------
G------8.---7.---5.---3------(5)(3)~------------------------------------
D-8.--------------------------------------------------------------------
A-----------------------------------------------------------------------
E-----------------------------------------------------------------------


e-----------------------------------------------------------------------
H-----------------------------------------------------------------------
G-5.---3.---2.---3.---2.---3.---2.---0------\\\---///-------------------
D-----------------------------------------------------------------------
A------------------------------------------- tremolo -------------------
E-----------------------------------------------------------------------


e--------3--------3-----------------------------------------------------
H-6(8)----------3---6p3-------------------------------------------------
G----------5(7)---------6-5p3---5-3-5(7).---5(7).---5(7).---5(7)~~------
D-----------------------------5-----------------------------------------
A-----------------------------------------------------------------------
E-----------------------------------------------------------------------


e-----------3-------------3.---6.---8(10)------8(10).--8.---6.--8-------
H-3.---6.-------3.---6.-------------------------------------------8-----
G-----------------------------------------------------------------------
D-----------------------------------------------------------------------
A-----------------------------------------------------------------------
E-----------------------------------------------------------------------


e--------------------8------8------8----8.--10.--11.--13.----13(15)-----
H-8.---11----------8---11-8---11-8---11---------------------------------
G-----------10(12)------------------------------------------------------
D-----------------------------------------------------------------------
A-----------------------------------------------------------------------
E-----------------------------------------------------------------------


e-13---(15).---13.---(15).---13.---13(15)~~-----------------------------
H-----------------------------------------------------------------------
G-----------------------------------------------------------------------
D-----------------------------------------------------------------------
A-----------------------------------------------------------------------
E-----------------------------------------------------------------------


e-13---(15).---13.------------------------------------------------------
H--------------------13(15).---13.---13(15)~~---------------------------
G-----------------------------------------------------------------------
D-----------------------------------------------------------------------
A-----------------------------------------------------------------------
E-----------------------------------------------------------------------


e-----------------------------------------------------------------------
H------6.--------------------------------------13.---11.---13.----------
G-5(7)------5(7)(5)p3---5.---3'----------/12----------------------------
D---------------------5-----------5-------------------------------------
A-----------------------------------------------------------------------
E-----------------------------------------------------------------------


e-----------------------------------------------------------------------
H-13(15)---------(15).--(15).--(15).--(15).--(15).--(15).--(15).--------
G-----------------------------------------------------------------------
D-----------------------------------------------------------------------
A-----------------------------------------------------------------------
E-----------------------------------------------------------------------


e-----------------------------------------------------------------------
H-(15).------(15).------(15).------(15).------(14).---------6(8)~~~~----
G-----------------------------------------------------------------------
D-----------------------------------------------------------------------
A-----------------------------------------------------------------------
E-----------------------------------------------------------------------




Are you satisfied with this guitar tab? Send your idea which song or guitar riff should be the next for tabbing by making a TAB REQUEST HERE
    
MORE ON GUITAR TABS A-Z 
   

SEE ALSO

WHEN A BLIND MAN CRIES TAB by Deep Purple