20130316

ERIC CLAPTON I SHOT THE SHERIFF TAB (LIVE, SOLO)

Eric Clapton playing I Shot The Sheriff live at Crossroads Guitar Festival in 2010.
He is so powerful and he still sings amazing not to mention his guitar playing.
See the TAB of the magic intro and the cool final solo he plays with that blue Fender Stratocaster below.



ERIC CLAPTON I SHOT THE SHERIFF SOLO TAB
(LIVE AT CROSSROADS FESTIVAL 2010)

PDF >>

Intro solo

e-----------------------------------------------------------------------
B-----------------------------------------------------------------------
G----------3---5-3h5p3---3---5-3h5p3---3---5.---------------------------
D-x---5.---------------5-------------5----------------------------------
A-----------------------------------------------------------------------
E-----------------------------------------------------------------------


e-----------------------------------------------------------------------
B-13(15)------13-11-13-11-------------------------11--------------------
G-------------------------12-12~---10.------10-12----12~---10.----------
D-----------------------------------------------------------------------
A-----------------------------------------------------------------------
E-----------------------------------------------------------------------


e-----------------------------------------------------------------------
B-------11----13----11'-----------------------11----13----11'-----------
G-10-12----12----12---------12.---------10-12----12----12--------12.----
D-------------------------------------12--------------------------------
A-----------------------------------------------------------------------
E-----------------------------------------------------------------------



e-----------------------------------------------------------------------
B---------13------11.---------------------------------------------------
G---10-12--------------12-10-12~-------10.------10---12-10h12p10--------
D-12-----------------------------------------12------------------12-----
A-----------------------------------------------------------------------
E-----------------------------------------------------------------------


e-----------------------------------------------------------------------
B-----------------------------------------------------------------------
G-10---12-10h12p10----10---12-10h12p10----10---12-10h12p10--------------
D------------------12------------------12------------------12-----------
A-----------------------------------------------------------------------
E-----------------------------------------------------------------------


e-----------------------------------------------------------------------
B-----------------------------------------------------------------------
G-10---12-10h12p10----10-12(14)------12.---10.--------------------------
D------------------12----------------------------12.--------------------
A-----------------------------------------------------------------------
E-----------------------------------------------------------------------


e-----------------------------------------------------------------------
B-----------------------------------------------------------------------
G-----------------------------------------------------------------------
D-10p8----8'-------------------8'---------------------------------------
A------10------10.---8---10.--------10~------8.-------------------------
E-----------------10----------------------------------------------------


e-----------------------------------------------------------------------
B-----------------------------------------------------------------------
G-----------------------------------------------------------------------
D------------------8------------------/-/-----\-\-----------------------
A--------8.---10-----10~------8.------/-/-----\-\-----------------------
E-8h10------------------------------------------------------------------


e-----------------------------------------------------------------------
B-----------------------------------------------------------------------
G-------10'-------------------------------------------------------------
D-/12------------12\10---8----------8-10/12-8-10--8-----8-10--8---------
A--------------------------10~----------------------10------------------
E-----------------------------------------------------------------------


e-----------------------------------------------------------------------
B-----------------------------------------------------------------------
G-----10-12--10-----10-12--10-12--10-----10-12--10-----10---------------
D-12------------12-------------------12------------12-------------------
A-----------------------------------------------------------------------
E-----------------------------------------------------------------------


e-----------------------------------------------------------------------
B---------------------------------11------------------------------------
G-12--10-12--10-12--10-----10-12-----12--10-12--10----------------------
D----------------------12--------------------------12--12\10--8---------
A---------------------------------------------------------------10------
E-----------------------------------------------------------------------


e-----------------------------------------------------------------------
B-----------------------------------------------------------------------
G----------------------------------------------------------------10-----
D-10----8--10/12.--8-10-8------------8----8-10-8h10p8----8-10/12--------
A----10-------------------10-8-10~-----10-------------10----------------
E-----------------------------------------------------------------------


e-----------------------------------------------------------------------
B-------------11----13~------11.---10.----------------------------------
G-12----10-12----12----------------------12.---10~----------------------
D----12-----------------------------------------------------------------
A-----------------------------------------------------------------------
E-----------------------------------------------------------------------


e-----------------------------------------------------------------------
B------------------------------------11h13~----11.--10------------------
G-10h12~----10.-----------------------------------------12.--10h12~-----
D----------------12\10--p8.--10~----------------------------------------
A-----------------------------------------------------------------------
E-----------------------------------------------------------------------


e-----------------------------------------------------------------------
B-13(15)---11h13p11'---------------------------11-----------11'.--------
G----------------------12p10-----12-----10-12-----12p10-12--------------
D----------------------------12-----12----------------------------------
A-----------------------------------------------------------------------
E-----------------------------------------------------------------------


e-----------------------------------------------------------------------
B-13(15)(13)-11-13-11----11'--------------------------------------------
G---------------------12-------12----10'--12.--------10(12)-----12------
D---------------------------------12------------------------------------
A-----------------------------------------------------------------------
E-----------------------------------------------------------------------


e-----------------------------------------------------------------------
B-----------------------------------------------------------------------
G-10(12).--12-10(12).--12-10(12).--12-10(12).--12-10(12).--12-----------
D-----------------------------------------------------------------------
A-----------------------------------------------------------------------
E-----------------------------------------------------------------------


e-----------------------------------------------------------------------
B-----------------------------------------------------------------------
G-10(12).---------------------------------------------------------------
D-----------12.---10p8-------8'-----------------------------------------
A----------------------10.--------10~-----------------------------------
E------------------------------------------------\\\\\\-----------------


e-----------------------------------------------------------------------
B-----------------------------------------------------------------------
G-----------------------------------------------------------------------
D-3/5----3--------------------------------------------------------------
A------------3/5----3---1--3/5.---3---1---------------------------------
E------------------------------------------3----------------------------



... and the BIG SOLO at the end is ready !!! HAVE FUN GUYS!

Big solo ~ 5:20

e-----------------------------------------------------------------------
B-------3--5--3--5-3h5p3---3--5--3h5p3----3--5-3h5p3----3---------------
G-3--5-------------------5-------------5-------------5------------------
D-----------------------------------------------------------------------
A-----------------------------------------------------------------------
E-----------------------------------------------------------------------


e-----------------------------------------------------------------------
B------------------------------------11.---10.--------------------------
G-/12------10---h12p10---------------------------12---------10.---12~---
D------------------------12~--------------------------12.---------------
A-----------------------------------------------------------------------
E-----------------------------------------------------------------------


e-----------------------------------------------------------------------
B-----------------------------------------------------------------------
G-10.---12~------10.---12~------10.---12~------10.---12~------10.-------
D-----------------------------------------------------------------------
A-----------------------------------------------------------------------
E-----------------------------------------------------------------------


e-----------------------------------------------------------------------
B-13(15)--------(13)------11.--13(15).--11'-----------------------------
G---------------------------------------------12p10-12~------10.--------
D-----------------------------------------------------------------------
A-----------------------------------------------------------------------
E-----------------------------------------------------------------------


e-----------------------------------------------------------------------
B-13(15)---(13)p11-------11.---13(15)---(13)p11----------11-------------
G------------------12p10------------------------12~---------12----------
D-----------------------------------------------------------------------
A-----------------------------------------------------------------------
E-----------------------------------------------------------------------


e-----------------------------------------------------------------------
B-11---13-11h13p11----11---13-11h13p11----11---13-11h13p11--------------
G------------------12------------------12------------------12-----------
D-----------------------------------------------------------------------
A-----------------------------------------------------------------------
E-----------------------------------------------------------------------


e-----------------------------------------------------------------------
B-11---13-11h13p11----11---13-11h13p11----11---13-11h13p11--------------
G------------------12------------------12------------------12-----------
D-----------------------------------------------------------------------
A-----------------------------------------------------------------------
E-----------------------------------------------------------------------


e-----------------------------------------------------------------------
B-11---13p11------11~---------------------------------------------------
G--------------12-------12-10-------------------------------------------
D-----------------------------12\10-8----8'--------------------8.-------
A-------------------------------------10------10----8.---10.------------
E------------------------------------------------10---------------------


e-----------------------------------------------------------------------
B-----------------------------------------------------------------------
G------10-10.--------9-9.------------10-10---10-------10-10---10-12-10--
D-12------------10-------------/12--------------/12---------------------
A-----------------------------------------------------------------------
E-----------------------------------------------------------------------


e-----------------------------------------------------------------------
B-----------------------------------------------------------------------
G-----------------------------------------------------------------------
D-12\10---8'--------------8.---10-8----8'-------------------------------
A--------------10-8-10'-------------10------10----8.---10.--------------
E----------------------------------------------10-----------------------


e-----------------------------------------------------------------------
B-x---x--x-x-x---x---x--x-x-x---x---x--x-x-x---x---x--x-x-x-------------
G-x---x--x-x-x---x---x--x-x-x---x---x--x-x-x---x---x--x-x-x-------------
D-x---x--x-x-x---x---x--x-x-x---x---x--x-x-x---x---x--x-x-x-------------
A-x---x--x-x-x---x---x--x-x-x---x---x--x-x-x---x---x--x-x-x-------------
E-----------------------------------------------------------------------


e--------3.-------------------------------------------------------------
B-6(8)--------6-3--------------5---3'-----------------------------------
G-----------------5-(6)(5)p3---5---3'-------------3----//-15-\\---------
D----------------------------5---5------5---3-5-------------------------
A-----------------------------------------------------------------------
E-----------------------------------------------------------------------


e-----------15~---------17.---15.---17(18).---17.---15.-----------------
B---------------------------------------------------------18.---15~-----
G-/15~------------------------------------------------------------------
D-----------------------------------------------------------------------
A-----------------------------------------------------------------------
E-----------------------------------------------------------------------


e-----------------------------------------------------------------------
B-18-15----15~------15-18-15----15~---------18-15----18p15----18-15-----
G-------17-------17----------17-------17.---------17-------17-------17--
D-----------------------------------------------------------------------
A-----------------------------------------------------------------------
E-----------------------------------------------------------------------


e--------------------15-17-18.--17h18p17p15-17~----15----15-------------
B-18----15-18(20)~------------------------------------18----18-15h18p15-
G----17-----------------------------------------------------------------
D-----------------------------------------------------------------------
A-----------------------------------------------------------------------
E-----------------------------------------------------------------------


e-----------------------------------------------------------------------
B----15-----------------------------------------------------------------
G-17----17(19)~---------17-15-17.---15~----------------------15.--------
D---------------------------------------------17----15-17~--------------
A------------------------------------------------17---------------------
E-----------------------------------------------------------------------


e-----------------------------------------------------------------------
B--------------------------------------15-18-15h18p15----15-------------
G-17(19).---15'---17-15----15-17(19)------------------17----17p15-------
D-----------------------17----------------------------------------17----
A-----------------------------------------------------------------------
E-----------------------------------------------------------------------


e-----------------------------------------------------------------------
B-------------15.---------15-16-16(18).---16-15-16-15h16p15----15-15~---
G-15'---17.-------------------------------------------------17----------
D-----------------------------------------------------------------------
A-----------------------------------------------------------------------
E-----------------------------------------------------------------------


e-----------------------------------------------------------------------
B----15-15h16p15----15-15h16p15----15-15h16p15----------------------15--
G-17-------------17-------------17-------------17p15----17----15-17-----
D----------------------------------------------------17----17-----------
A-----------------------------------------------------------------------
E-----------------------------------------------------------------------


e-----------------------------------------------------------------------
B-16--(18)---------16p15h16p15-16-15h16p15------------------------------
G------------------------------------------17-15----17----15.-----------
D------------------------------------------------17----17---------------
A-----------------------------------------------------------------------
E-----------------------------------------------------------------------


e-----------------------------------------------------------------------
B-----------------------------------------------------------------------
G-14.---15-14h15p14----14----------------------15-17(19)------15h17~----
D-------------------17----17-15----17----15-17--------------------------
A-------------------------------17----17--------------------------------
E-----------------------------------------------------------------------


e-----------------------------------------------------------------------
B--------------------------------------------------------------------15-
G-15~---------------------------------17---(19)(17)p15-------15---17----
D----------17p15-17-17~------15.-----------------------17-15------------
A-----------------------------------------------------------------------
E-----------------------------------------------------------------------


e-----------------------------------------------------------------------
B-18p15-18.---15.---18(20)~------18-15----------------------------------
G--------------------------------------17.---15~---------------------15-
D-----------------------------------------------------17p15----15h17----
A-----------------------------------------------------------17----------
E-----------------------------------------------------------------------


e----------------------------------------------------------------15.----
B-------------------15-18-15h18p15----15----------------------15--------
G-------------15-17----------------17----17p15----15-17(19)-------------
D-17p15-17~------------------------------------17-----------------------
A-----------------------------------------------------------------------
E-----------------------------------------------------------------------


e-17(18)(17)-15~------15.--17.--18.--17.--15.--17.--15h17p15h17p15------
B-----------------------------------------------------------------------
G-----------------------------------------------------------------------
D-----------------------------------------------------------------------
A-----------------------------------------------------------------------
E-----------------------------------------------------------------------


e-----------------------------------------------------------------------
B-18-15----15h18p15----15-15h18p15----15h18p15----15h18p15----15h18p15--
G-------17----------17-------------17----------17----------17---------17
D-----------------------------------------------------------------------
A-----------------------------------------------------------------------
E-----------------------------------------------------------------------


e-----------------------------------------------------------------------
B-15h18p15----15h18p15----15h18p15----15------15-15---15-15-15-15-------
G----------17----------17----------17------17---------------------------
D-----------------------------------------------------------------------
A-----------------------------------------------------------------------
E-----------------------------------------------------------------------


e-------------15.-------------------------------15----------------------
B-18(20)---------------15-15-18(20)---(20)-(20)----(20)(18)p15----15-15-
G--------------------------------------------------------------17-------
D-----------------------------------------------------------------------
A-----------------------------------------------------------------------
E-----------------------------------------------------------------------


e----------------------------------------------------------15-15~-------
B----15----------------------------15-18p15----15-18(20)----------------
G-17----17p15----17----15-17(19)------------17--------------------------
D-------------17----17--------------------------------------------------
A-----------------------------------------------------------------------
E-----------------------------------------------------------------------


e-15.--17.--17(18)(17)---15-17.--17~~--15-17.-17~~--15-17.--17~~--15----
B-----------------------------------------------------------------------
G-----------------------------------------------------------------------
D-----------------------------------------------------------------------
A-----------------------------------------------------------------------
E-----------------------------------------------------------------------


e-17.--17~~--15-17.--17~~--18.--17.--18.--17h18p17-18(20)------15-18----
B-----------------------------------------------------------------------
G-----------------------------------------------------------------------
D-----------------------------------------------------------------------
A-----------------------------------------------------------------------
E-----------------------------------------------------------------------


e-15h18p15----15----------------15.-------------------------------------
B----------18----18(20)---------------18~---15--------------------------
G------------------------------------------------17.---15~---14~--------
D------------------------------------------------------------------15~--
A-----------------------------------------------------------------------
E-----------------------------------------------------------------------


e-----------------------------------------------------------------------
B--------------------15'------------------------------------------------
G--------------------15'------------------------------------------------
D--------15~---h17.----------17.-------15.--17.-------------------------
A-/17.----------------------------17.-----------------------------------
E-----------------------------------------------------------------------


e--------------------------------15~-------------------------------15~--
B-15'-----------15.-----------------------------------------------------
G-15'------17.-------17(19)---------------------15.--17---(19)----------
D------------------------------------------17.--------------------------
A-----------------------------------------------------------------------
E-----------------------------------------------------------------------


e---------------------------15~-----------------------------------15.---
B------------------------------------------------------------15.--------
G------15.--17.--17(19)--------------------15.--17.--17(19)-------------
D-17.---------------------------------17.-------------------------------
A-----------------------------------------------------------------------
E-----------------------------------------------------------------------


e-17(18)------17~------15.--17(18)---17.--15~---------------------------
B--------------------------------------------------18-15----15~---------
G--------------------------------------------------------17-------------
D-----------------------------------------------------------------------
A-----------------------------------------------------------------------
E-----------------------------------------------------------------------


e-----------------------------------------------------------------------
B----15-18-15----15~---------15-15-18p15----15-18p15----15-18p15----15--
G-17----------17----------17-------------17----------17----------17-----
D-----------------------------------------------------------------------
A-----------------------------------------------------------------------
E-----------------------------------------------------------------------


e-----------------------------------------------------------------------
B-18p15----15-18p15----15-18p15----15-18p15----15-18p15----15-----------
G-------17----------17----------17----------17----------17--------------
D-----------------------------------------------------------------------
A-----------------------------------------------------------------------
E-----------------------------------------------------------------------


e------------------------------------------18----------18---------------
B-18p15----15-18p15----15-15-18(20)-----------18(20)------18(20)--------
G-------17----------17--------------------------------------------------
D-----------------------------------------------------------------------
A-----------------------------------------------------------------------
E-----------------------------------------------------------------------


e-18----------18----------18----------18----------18--------------------
B----18(20)------18(20)------18(20)------18(20)------18(20)---18--15----
G--------------------------------------------------------------------17-
D-----------------------------------------------------------------------
A-----------------------------------------------------------------------
E-----------------------------------------------------------------------

Fast part

e-----------------------------------------------------------------------
B-15-18p15----15----------------------------15-18p15----15--------------
G----------17----17p15----------15-17(19)------------17----17p15--------
D----------------------17-15-17----------------------------------17-----
A-----------------------------------------------------------------------
E-----------------------------------------------------------------------


e-----------------------------------------------------------------------
B-------------------15-18p15----15----------------------------15-18p15--
G-------15-17(19)------------17----17p15----------15-17(19)-------------
D-15-17----------------------------------17-15-17-----------------------
A-----------------------------------------------------------------------
E-----------------------------------------------------------------------


e-----------------------------------------------------------------------
B----15----------------------------15-18p15-----------------------------
G-17----17p15----------15-17(19)------------17--------------------------
D-------------17-15-17--------------------------------------------------
A-----------------------------------------------------------------------
E-----------------------------------------------------------------------


e-----------------------------------------------------------------------
B-15-15-15-15-15-15-15-15-15-13-13-13-13-11-11-11-11-10-10-10-10--------
G-----------------------------------------------------------------------
D-----------------------------------------------------------------------
A-----------------------------------------------------------------------
E-----------------------------------------------------------------------


e-----------------------------------------------------------------------
B-----------------------------------------------------------------------
G-12-12-12-10-10-10-------------------------/10-10-10-10-10-10-10-10----
D-------------------12-12-12-10-10-10-8-8-8-/12-12-12-12-12-12-12-12----
A-----------------------------------------------------------------------
E-----------------------------------------------------------------------


e-----------------------------------------------------------------------
B------------------------------------3.--6-3---3---------3'-------------
G--8--8--8--8-7-7-7-7--------3.--5.----------5---5-3-----3'-------------
D-10-10-10-10-8-8-8-8---/5---------------------------5-3------5.---5-//-
A-----------------------------------------------------------------------
E-----------------------------------------------------------------------


The End (amazing)

e-----------------------------------------------------------------------
B-18(20)---18(20)---18~------15----15-15~-------------------------------
G-------------------------------17--------------------------------------
D-----------------------------------------------------------------------
A-----------------------------------------------------------------------
E-----------------------------------------------------------------------


e-----------------------------------------------------------------------
B----15-----------------------------------------------------------------
G-17----17.---15'-------------------------------------------------------
D-------------------17-15----15h17.-------------------------------------
A-------------------------17--------------------------------------------
E-----------------------------------------------------------------------


e----------------------------------18'------15~-------------------------
B-18(20)---18(20)---18~------15-----------------------------------------
G-------------------------------17--------------------------------------
D-----------------------------------------------------------------------
A-----------------------------------------------------------------------
E-----------------------------------------------------------------------


e------15.--17.--15.----------------------------------------------------
B-18.-----------------18.--15.-----18(20)---18(20)---18~------15----15.-
G----------------------------------------------------------------17-----
D-----------------------------------------------------------------------
A-----------------------------------------------------------------------
E-----------------------------------------------------------------------


e-----------------------------------------------------------------------
B-----15.-18.-15h18p15----15--------------------------------------------
G----------------------17----17p15----15~-------------------------------
D----------------------------------17-------17p15-----------------------
A-------------------------------------------------17.-------------------
E-----------------------------------------------------------------------


e-----------------------------------------------------------------------
B-18(20)---18(20)---18~------15----15.----------------------------------
G-------------------------------17--------------------------------------
D-----------------------------------------------------------------------
A-----------------------------------------------------------------------
E-----------------------------------------------------------------------


e-----------------------------------------------------------------------
B-18(20)---18~---15-15-15-----------------------------------------------
G-------------------------17-17-17-15-17-17/19-17-15-17---15----15.-17.-
D------------------------------------------------------------17---------
A-----------------------------------------------------------------------
E-----------------------------------------------------------------------


e-----------------------------------------------------------------------
B-15.-------------------------------------------------------------------
G-----17.-15h17p15----17----15------------------------------------------
D------------------17----17----17p15------------------------------------
A------------------------------------17\15p13---------------------------
E---------------------------------------------15-\\---------------------


e-------------------------------------3-3-3-3-3-3-3~--------------------
B-------------------------------------3-3-3-3-3-3-3~--------------------
G-------------------------------------3-3-3-3-3-3-3~--------------------
D-----3---3h5-3h5.--3h5---3-----------5-5-5-5-5-5-5~--------------------
A-3h5---5-------------------5\3p1-----5-5-5-5-5-5-5~--------------------
E---------------------------------3---3-3-3-3-3-3-3~--------------------