20130327

GUNS N ROSES DON'T CRY SOLO TAB AND COVER


Richard Borg plays a good guitar cover of Guns N Roses - Don't Cry solo.
He uses half-step down tuning.
See the TAB under the video.



GUNS N ROSES DON'T CRY SOLO TAB                   

PDF >>

eb----------------------------------------------------------------------
Bb----------------------------------------------------------8-----------
Gb------------------7(9)------(7)p5-7~~----7(9)(7)p5-7(9)---------------
Db-7~~~~----------------------------------------------------------------
Ab----------------------------------------------------------------------
Eb----------------------------------------------------------------------


eb----------------------------------------------------------------------
Bb------------------8-8-------------------------------------------------
Gb-7(9)(7)p5-7(9)-------(9)(7)-5'---------------------------------------
Db----------------------------------7~---5~-----------------------------
Ab--------------------------------------------5(6)(5)-3~----------------
Eb----------------------------------------------------------------------


eb----------------------------------------------------------------------
Bb---------------------------------------15(17)---13'-------------------
Gb-7/9-9/10------------------------12h14----------------14~-------------
Db---------------------10h12-12/14--------------------------------------
Ab-5/7-7/8--8h10-10/12--------------------------------------------------
Eb----------------------------------------------------------------------



eb----------------------------------------------------------------------
Bb----------------------------------------------------------------------
Gb-12-------------------------------------------------------------------
Db------14---13h14p13p12-13p12-10.---12p10-------10---------------------
Ab-----------------------------------------12p10------12p10~------------
Eb----------------------------------------------------------------------


eb----------15-15-15----------------------15-15-------------------------
Bb-15(17)------------(17)(15)-13-15(17)---------(17)(15)-13-12----------
Gb----------------------------------------------------------------------
Db----------------------------------------------------------------------
Ab----------------------------------------------------------------------
Eb----------------------------------------------------------------------


eb-----------------------------------------------13---------------------
Bb-----------12---13/15---13---12---13--------------13------------------
Gb------13-------------------------------14-----------------------------
Db-14-----------------------------------------15------------------------
Ab----------------------------------------------------------------------
Eb----------------------------------------------------------------------


eb------------------------------------------5---------------------------
Bb-15(17)---15~------15(17)(15)-13--8(10)------8--5---------------------
Gb----------------------------------------------------------------------
Db----------------------------------------------------------------------
Ab----------------------------------------------------------------------
Eb----------------------------------------------------------------------


eb----------------------------------------------------------------------
Bb-------------8--------------------------------------------------------
Gb-7(9)(7)-5-7-7(9)----------~~~~~~~~-----------------------------------
Db----------------------------------------------------------------------
Ab----------------------------------------------------------------------
Eb----------------------------------------------------------------------