20130318

JASON MRAZ I'M YOURS TAB AND LESSON



In this video you can see how to play all the guitar parts in I'm Yours by Jason Mraz.
See the TAB under the video.



JASON MRAZ I'M YOURS TAB
 
PDF >>

Intro

e-7/9.---7---------7/9.---6---------------------------------------------
B-7/9.---7---------7/9.---7---------7/9.--------------------------------
G-----------------------------------6/8.---8---------8.---8h9-----------
D------------------------------------------9---------9.---9-------------
A-----------------------------------------------------------------------
E-----------------------------------------------------------------------




Verse 1 & chorus (with high chords) 


      B                           F#
e-----7-------7-------7-------7-----------------------------------------
B-----7-x-x-x-7-x-x-x-7-x-x-x-7-x-----11-x-x-x-11-x-x-x-11-x-x-x-11-x---
G-----8-x-x-x-8-x-x-x-8-x-x-x-8-x-----11-x-x-x-11-x-x-x-11-x-x-x-11-x---
D-----9-x-x-x-9-x-x-x-9-x-x-x-9-x-----11-x-x-x-11-x-x-x-11-x-x-x-11-x---
A-----9-x-x-x-9-x-x-x-9-x-x-x-9-x-9----9--------9--------9--------9-----
E-7---7-------7-------7-------7-----------------------------------------



      G#m                             E
e------11-------11-------11-------11------------------------------------
B------12-x-x-x-12-x-x-x-12-x-x-x-12-x-----9-x-x-x-9-x-x-x-9-x-x-x-9-x--
G------13-x-x-x-13-x-x-x-13-x-x-x-13-x-----9-x-x-x-9-x-x-x-9-x-x-x-9-x--
D------13-x-x-x-13-x-x-x-13-x-x-x-13-x-----9-x-x-x-9-x-x-x-9-x-x-x-9-x--
A-11---11-x-x-x-11-x-x-x-11-x-x-x-11-x-7---7-------7-------7-------7----
E-----------------------------------------------------------------------



Verse 2 (high Chords)


      B                           F#
e-----7-------7-------7-------7-----------------------------------------
B-----7-x-x-x-7-x-x-x-7-x-x-x-7-x-----11-x-x-x-11-x-x-x-11-x-x-x-11-x---
G-----8-x-x-x-8-x-x-x-8-x-x-x-8-x-----11-x-x-x-11-x-x-x-11-x-x-x-11-x---
D-----9-x-x-x-9-x-x-x-9-x-x-x-9-x-----11-x-x-x-11-x-x-x-11-x-x-x-11-x---
A-----9-x-x-x-9-x-x-x-9-x-x-x-9-x-9----9--------9--------9--------9-----
E-7---7-------7-------7-------7-----------------------------------------

      G#m                             E
e------11-------11-------11-------11------------------------------------
B------12-x-x-x-12-x-x-x-12-x-x-x-12-x-----9-x-x-x-9-x-x-x-9-x-x-x-9-x--
G------13-x-x-x-13-x-x-x-13-x-x-x-13-x-----9-x-x-x-9-x-x-x-9-x-x-x-9-x--
D------13-x-x-x-13-x-x-x-13-x-x-x-13-x-----9-x-x-x-9-x-x-x-9-x-x-x-9-x--
A-11---11-x-x-x-11-x-x-x-11-x-x-x-11-x-7---7-------7-------7-------7----
E-----------------------------------------------------------------------

      C#7/F

e-----------------------------------------------------------------------
B-----12-12---12-12---12\-----------------------------------------------
G-----10-10---10-10---10\-----------------------------------------------
D-----11-11---11-11---11\-----------------------------------------------
A-8---8--8----8--8----8-\-----------------------------------------------
E-----------------------------------------------------------------------



Verse & Chorus (Low chords) 


      B                           F#
e-----7-------7-------7-------7-------2-------2-------2-------2---------
B-----7-x-x-x-7-x-x-x-7-x-x-x-7-x-----2-x-x-x-2-x-x-x-2-x-x-x-2-x-------
G-----8-x-x-x-8-x-x-x-8-x-x-x-8-x-----3-x-x-x-3-x-x-x-3-x-x-x-3-x-------
D-----9-x-x-x-9-x-x-x-9-x-x-x-9-x-----4-x-x-x-4-x-x-x-4-x-x-x-4-x-------
A-----9-x-x-x-9-x-x-x-9-x-x-x-9-x-----4-------4-------4-------4---------
E-7---7-------7-------7-------7---2---2-------2-------2-------2---------

      G#m                         E

e-----4-------4-------4-------4-----------------------------------------
B-----4-x-x-x-4-x-x-x-4-x-x-x-4-x-----9-x-x-x-9-x-x-x-9-x-x-x-9-x-------
G-----4-x-x-x-4-x-x-x-4-x-x-x-4-x-----9-x-x-x-9-x-x-x-9-x-x-x-9-x-------
D-----6-x-x-x-6-x-x-x-6-x-x-x-6-x-----9-x-x-x-9-x-x-x-9-x-x-x-9-x-------
A-----6-x-x-x-6-x-x-x-6-x-x-x-6-x-7---7-------7-------7-------7---------
E-4---4-------4-------4-------4-----------------------------------------

  C#7/F

e-----------------------------------------------------------------------
B-----12-12---12-12---12\-----------------------------------------------
G-----10-10---10-10---10\-----------------------------------------------
D-----11-11---11-11---11\-----------------------------------------------
A-8---8--8----8--8----8-\-----------------------------------------------
E-----------------------------------------------------------------------



Bridge part  


      B           Bmaj7              G#m         F#
e-----------------------------------------------------------------------
B-----------------------------------------------------------------------
G-----8-x-x-8-x-x-------x-x---x-x-----4-x-x-4-x-x-----3-x-x-3-x-x-------
D-----9-x-x-9-x-x-----8-x-x-8-x-x-----6-x-x-6-x-x-----4-x-x-4-x-x-------
A-----9-x-x-9-x-x-----9-x-x-9-x-x-----6-x-x-6-x-x-----4-x-x-4-x-x-------
E-7---7-----7-----6---6-----6-----4---4-----4-----2---2-----2-----------

      E                           C#7/F

e-----------------------------------------------------------------------
B-----9-x-x-9-x-x-----9-x-x-9-x-x-----12-x-x-12-x-x-----12-x-x-12-x-x---
G-----9-x-x-9-x-x-----9-x-x-9-x-x-----10-x-x-10-x-x-----10-x-x-10-x-x---
D-----9-x-x-9-x-x-----9-x-x-9-x-x-----11-x-x-11-x-x-----11-x-x-11-x-x---
A-7---7-----7-----7---7-----7-----8---8------8------8---8------8--------
E-----------------------------------------------------------------------

      B           Bmaj7           G#m             F#

e-----------------------------------------------------------------------
B-----------------------------------------------------------------------
G-----8-x-x-8-x-x-------x-x---x-x-----4-x-x-4-x-x-----3-x-x-3-x-x-------
D-----9-x-x-9-x-x-----8-x-x-8-x-x-----6-x-x-6-x-x-----4-x-x-4-x-x-------
A-----9-x-x-9-x-x-----9-x-x-9-x-x-----6-x-x-6-x-x-----4-x-x-4-x-x-------
E-7---7-----7-----6---6-----6-----4---4-----4-----2---2-----2-----------

      E                           C#7/F

e-----------------------------------------------------------------------
B-----9-x-x-9-x-x-----9-x-x-9-x-x-----12-12---12-12---12\---------------
G-----9-x-x-9-x-x-----9-x-x-9-x-x-----10-10---10-10---10\---------------
D-----9-x-x-9-x-x-----9-x-x-9-x-x-----11-11---11-11---11\---------------
A-7---7-----7-----7---7-----7-----8---8--8----8--8----8-\---------------
E-----------------------------------------------------------------------