20130303

MURIS VARAJIC SILENT INNER CRY TAB

Muris Varajic plays his song Silent Inner Cry with a cool green Telecaster.
He makes a mix of traditional Balkan music elements with modern guitar approach and sound. Watch how many pull-offs, slides and hammer-ons he uses to make this song so cool. See the TAB of the main parts of the song under the video.

 

MURIS VARAJIC SILENT INNER CRY TAB                                     Printable tab here

e-----------------------------------------------------------------------
H-3---------------------------------------------------------------------
G-5---------------------------------------------------------------------
D-5---------------------------------------------------------------------
A-x---------------------------------------------------------------------
E-5---------------------------------------------------------------------


Part 1

e-----------------------------------------------------------------------
H-----------------------------------------------------------------------
G----7-----7~~-(8)(7)p5h7.----5/7-7-7-7-8p7-----------------------------
D-5-----5-----------------------------------10p8-10/12.--10h12p10~~\----
A-----------------------------------------------------------------------
E-----------------------------------------------------------------------


e-----------------------------------------------------------------------
H-----------------------------------------------------------------------
G----7-----7~~-(8)(7)p5h7.----5/7-7-7-7-8p7-----------------------------
D-5-----5-----------------------------------10p8-10/12.--10h12p10~~\----
A-----------------------------------------------------------------------
E-----------------------------------------------------------------------


e-----------------------------------------------------------------------
H-----------------------------------------------------------------------
G-/3--3--3--3/5\3p2--------/2--2--2--2h3--3p2----------2--2h3--/5\3-----
D-------------------5.-----------------------5-3--3h5-------------------
A-----------------------------------------------------------------------
E-----------------------------------------------------------------------


e-----------------------------------------------------------------------
H-----------------------------------------------------------------------
G-p2h3~---p2h3~---p2h3~---p2h3.--------3--3--3--3p2/3--h5p3p2-----------
D--------------------------------------------------------------5.-------
A-----------------------------------------------------------------------
E-----------------------------------------------------------------------


e-----------------------------------------------------------------------
H-----------------------------------------------------------------------
G-2--2--2h3h5.--5p3p2------------------------------<12>-----------------
D--------------------5--3--5/7.--5h7p5~--/---------<12>-----------------
A-----------------------------------------------------------------------
E-----------------------------------------------------------------------


Part 2

e-----10------10h11p10h11p10---10.---8/10--10--10--10--10h11p10---------
H---------------------------13---------------------------------13p11----
G-12------12------------------------------------------------------------
D-----------------------------------------------------------------------
A-----------------------------------------------------------------------
E-----------------------------------------------------------------------


e---------------------------------------10------10h11p10h11p10---10.----
H-13/15.---13p11h13~-------\----------------------------------13--------
G--------------------------------10/12------12--------------------------
D-----------------------------------------------------------------------
A-----------------------------------------------------------------------
E-----------------------------------------------------------------------


e-8/10--10--10--10h11/13--13p11\10--/11--/13.--13p11p10/11~-------------
H-----------------------------------------------------------------------
G-----------------------------------------------------------------------
D-----------------------------------------------------------------------
A-----------------------------------------------------------------------
E-----------------------------------------------------------------------


e-10h11--10h11--10h11--p10----------------------------------------------
H--------------------------13~--------11--11--11--11--h13p11p10---------
G----------------------------------------------------------------12.----
D-----------------------------------------------------------------------
A-----------------------------------------------------------------------
E-----------------------------------------------------------------------


e-----------------------------------------------------------------------
H-8/10--10--10--10h11--11p10---------------10--10h11--/13\11------------
G----------------------------12p10--10h12-------------------------------
D-----------------------------------------------------------------------
A-----------------------------------------------------------------------
E-----------------------------------------------------------------------


e-----------------------------------------------------------------------
H-p10h11~---p10h11~---p10h11~---p10h11----------------------------------
G-----------------------------------------------------------------------
D-----------------------------------------------------------------------
A-----------------------------------------------------------------------
E-----------------------------------------------------------------------


e-----------------------------------------------------------------------
H-11--11--11--10/11--h13p11p10------------------------------------------
G-------------------------------12--------------------------------------
D-----------------------------------------------------------------------
A-----------------------------------------------------------------------
E-----------------------------------------------------------------------


e-----------------------------------------------------------------------
H-8/10--10--10h11h13.-13p11p10------------------------------------------
G-------------------------------12h10--/10h12--12~------------12\-------
D-----------------------------------------------------------------------
A-----------------------------------------------------------------------
E-----------------------------------------------------------------------


Part 3

e----------------10h11--8.---8h10-----8.---8h10-----8--h9p8h9p8h9p8-----
H-/8--8--10--11-------------------11------------11----------------------
G-----------------------------------------------------------------------
D-----------------------------------------------------------------------
A-----------------------------------------------------------------------
E-----------------------------------------------------------------------


e-8-8-8--6--5--5h6p5----------------------------------------------------
H-------------------8-6~---h7p6h7p6h7p6h7p6h7p6.------------------------
G-----------------------------------------------------------------------
D-----------------------------------------------------------------------
A-----------------------------------------------------------------------
E-----------------------------------------------------------------------


e-----------------6h8-6.---6h8-5--6.---6h8-5--6--h7p6h7p6h7p6-----------
H-6-6-6--6h8--10--------------------------------------------------------
G-----------------------------------------------------------------------
D-----------------------------------------------------------------------
A-----------------------------------------------------------------------
E-----------------------------------------------------------------------


e-6-6-6--6h8--10--8-h10p8p6\5---h6p5h6p5h6p5\3--------------------------
H-----------------------------------------------------------------------
G----------------------------------------------5------------------------
D-----------------------------------------------------------------------
A-----------------------------------------------------------------------
E-----------------------------------------------------------------------


e----------------10h11-8.---8h10-----8--/15--13h15-11h13-10h11----------
H-/8--8--10--11------------------11----------------------------13~------
G-----------------------------------------------------------------------
D-----------------------------------------------------------------------
A-----------------------------------------------------------------------
E-----------------------------------------------------------------------


e-----------------------------------------------------------------------
H-13-13-13--11--10--10h11p10--------------------------------------------
G----------------------------12-10~~---h11p10h11p10h11p10h11p10~~\------
D-----------------------------------------------------------------------
A-----------------------------------------------------------------------
E-----------------------------------------------------------------------


e-----------------------------------------------------------------------
H-----------------------11h13-11.---11h13-10--11.-----------------------
G-/10-10-10--10h12--14--------------------------------------------------
D-----------------------------------------------------------------------
A-----------------------------------------------------------------------
E-----------------------------------------------------------------------


e-----------------------------------------------------------------------
H-11h13p10h11p10------h15p10h15p10h15p10.-------------------------------
G------------------------------------------------/10h12-12~~~~~~--------
D-----------------------------------------------------------------------
A-----------------------------------------------------------------------
E-----------------------------------------------------------------------