20130327

MY HEART WILL GO ON TAB (GUITAR SOLO COVER BY MUMI KHUDAYER)

Great instrumental guitar cover of My Heart Will Go On played by Mumi Khudayer.
It looks like you'll need extremely soft strings (about 9 or 8) or strong fingers ...
Using the tremolo bar makes this solo much more exciting.
TAB below.


MY HEART WILL GO ON TAB

PDF >>

Intro

e-----------------------------------------------------------------------
B-5--7--7/9~--------10p9p7--5--7---/12~---------------------------------
G-----------------------------------------------------------------------
D-----------------------------------------------------------------------
A-----------------------------------------------------------------------
E-----------------------------------------------------------------------


e-----------------------------------------------------------------------
B-10--12--12(14)------12~-----\--7~-------------------------------------
G-----------------------------------------------------------------------
D-----------------------------------------------------------------------
A-----------------------------------------------------------------------
E-----------------------------------------------------------------------


Verse

e---------------------------------------------2~--4~-----2~-------------
B-5~-----5-5---5~--4~--5~------5---4---5~-------------------------------
G-----------------------------------------------------------------------
D-----------------------------------------------------------------------
A-----------------------------------------------------------------------
E-----------------------------------------------------------------------



e-----------------------------------------------------------------------
B-/5~-----5-5~---5~--4~--5~------5~-------------------------------------
G-------------------------------------4~-----4\\\----///----------------
D-----------------------------------------------------------------------
A---------------------------------------------- tremolo ----------------
E-----------------------------------------------------------------------


e---------------------------------------------2~--4~-----2~-------------
B-5~-----5-5---5~--4~--5~------5---4---5~-------------------------------
G-----------------------------------------------------------------------
D-----------------------------------------------------------------------
A-----------------------------------------------------------------------
E-----------------------------------------------------------------------


e-----------------------------------------------------------------------
B-/5~-----5-5~---5~--4~--4h5~------5~-----------------------------------
G---------------------------------------4~------4\\\----////------------
D-----------------------------------------------------------------------
A------------------------------------------------- tremolo -------------
E-----------------------------------------------------------------------


Chorus

e----------------------------------------5(7)---5---4h5p4-2~------------
B-/5~---------5(7)(5)(7)------(7)(5)------------------------------------
G---------4--------------------------4----------------------------------
D-----------------------------------------------------------------------
A-----------------------------------------------------------------------
E-----------------------------------------------------------------------


e-4---5---4~-----2------------------------------------------------------
B-------------------/5-4---4h5~-----5-----------------------------------
G---------------------------------------6~-----6~-----4~----------------
D-----------------------------------------------------------------------
A-----------------------------------------------------------------------
E-----------------------------------------------------------------------


e-------------------------------------5(7)------5---4h5p4-2~------------
B-/5~---------5(7)------(5)(7)(5)---------------------------------------
G---------4-----------------------4-------------------------------------
D-----------------------------------------------------------------------
A-----------------------------------------------------------------------
E-----------------------------------------------------------------------


e-4---5---4~--h5p4h5p4---2----------------------------------------------
B----------------------------/5-4---4h5~-----5--------------------------
G-----------------------------------------------4/6~----------4~--------
D-----------------------------------------------------------------------
A-----------------------------------------------------------------------
E-----------------------------------------------------------------------


Intsrumental

e-12---14---14/16------16---17p16p14\12-14---/19---19~------------------
B-----------------------------------------------------------------------
G-----------------------------------------------------------------------
D-----------------------------------------------------------------------
A-----------------------------------------------------------------------
E-----------------------------------------------------------------------


e-17---19---19(21)------19~------14~------------------------------------
B-----------------------------------------------------------------------
G-----------------------------------------------------------------------
D-----------------------------------------------------------------------
A-----------------------------------------------------------------------
E-----------------------------------------------------------------------


Verse 2

e-------------------------------------------------14---16---14~---------
B-17~-----17---17---16---17~------17---16---17~-------------------------
G-----------------------------------------------------------------------
D-----------------------------------------------------------------------
A-----------------------------------------------------------------------
E-----------------------------------------------------------------------


e-----------------------------------------------------------------------
B-17~-----17-17---17---16---17~------17---------------------------------
G-----------------------------------------16~-------16\\\---///---------
D-----------------------------------------------------------------------
A-----------------------------------------------------------------------
E-----------------------------------------------------------------------


e----------------------------------------------------14---16---14~------
B-17~-----17-17----17---16---17~------17---16---17~---------------------
G-----------------------------------------------------------------------
D-----------------------------------------------------------------------
A-----------------------------------------------------------------------
E-----------------------------------------------------------------------


e-----------------------------------------------------------------------
B-17~-----17-17---17---16---17~------17---------------------------------
G-----------------------------------------16~-------16~~~~~~~~~---------
D-----------------------------------------------------------------------
A-----------------------------------------------------------------------
E-----------------------------------------------------------------------


Chorus 2

e-----------------------------------------------------------------------
B-17~-----17--------17(19)(17)(19)------17(19)(17)----------------------
G--------------16----------------------------------16-------------------
D-----------------------------------------------------------------------
A-----------------------------------------------------------------------
E-----------------------------------------------------------------------


e-17(19)------17~-----16h17p16-14~--------------------------------------
B-----------------------------------------------------------------------
G-----------------------------------------------------------------------
D-----------------------------------------------------------------------
A-----------------------------------------------------------------------
E-----------------------------------------------------------------------


e-16---17---16~------14-------------------------------------------------
B----------------------------17-16---\--/17~----------------------------
G-----------------------------------------------------------------------
D-----------------------------------------------------------------------
A-----------------------------------------------------------------------
E-----------------------------------------------------------------------


e-----------------------------------------------------------------------
B-17--------------------------------------------------------------------
G------16/18~------\16~-------------------------------------------------
D-----------------------------------------------------------------------
A-----------------------------------------------------------------------
E-----------------------------------------------------------------------


e-----------------------------------------------------------------------
B-17~-----17--------17(19)(17)(19)------17(19)(17)----------------------
G--------------16----------------------------------16-------------------
D-----------------------------------------------------------------------
A-----------------------------------------------------------------------
E-----------------------------------------------------------------------


e-17(19)------17~-----16h17p16-14~--------------------------------------
B-----------------------------------------------------------------------
G-----------------------------------------------------------------------
D-----------------------------------------------------------------------
A-----------------------------------------------------------------------
E-----------------------------------------------------------------------


e-16---17---16~------14~------------------------------------------------
B----------------------------17-16-------17~----------------------------
G-----------------------------------------------------------------------
D-----------------------------------------------------------------------
A-----------------------------------------------------------------------
E-----------------------------------------------------------------------


e-----------------------------------------------------------------------
B-17--------------------------------------------------------------------
G------16/18~------\16~-------------------------------------------------
D-----------------------------------------------------------------------
A-----------------------------------------------------------------------
E-----------------------------------------------------------------------


Instrumental

e-12---14---14/16~-----16---17p16p14\12-14---/19---19~------------------
B-----------------------------------------------------------------------
G-----------------------------------------------------------------------
D-----------------------------------------------------------------------
A-----------------------------------------------------------------------
E-----------------------------------------------------------------------


e-17---19---19(21)------19~------14~------------------------------------
B-----------------------------------------------------------------------
G-----------------------------------------------------------------------
D-----------------------------------------------------------------------
A-----------------------------------------------------------------------
E-----------------------------------------------------------------------


e-/12---14---14/16~----16-16---17p16p14\12-14---/19---19~---------------
B-----------------------------------------------------------------------
G-----------------------------------------------------------------------
D-----------------------------------------------------------------------
A-----------------------------------------------------------------------
E-----------------------------------------------------------------------


e-17---19---19(21)---19(21)---19(21)---19(21)~------19(21)---19(21)\----
B-----------------------------------------------------------------------
G-----------------------------------------------------------------------
D-----------------------------------------------------------------------
A-----------------------------------------------------------------------
E-----------------------------------------------------------------------


Chorus 3

e-16~------16--------16(18)------16(18)(16)-----------------------------
B---------------16--------------------------16--------------------------
G-----------------------------------------------------------------------
D-----------------------------------------------------------------------
A-----------------------------------------------------------------------
E-----------------------------------------------------------------------


e-21(23)------21------20p21h20-18~--------------------------------------
B-----------------------------------------------------------------------
G-----------------------------------------------------------------------
D-----------------------------------------------------------------------
A-----------------------------------------------------------------------
E-----------------------------------------------------------------------


e-20---21---20~-----18~-----16-15---16~---------------------------------
B-----------------------------------------------------------------------
G-----------------------------------------------------------------------
D-----------------------------------------------------------------------
A-----------------------------------------------------------------------
E-----------------------------------------------------------------------


e-16p15-13~--------13---\11-11-\----------------------------------------
B-----------------------------------------------------------------------
G-----------------------------------------------------------------------
D-----------------------------------------------------------------------
A-----------------------------------------------------------------------
E-----------------------------------------------------------------------


e-------14----15----16----15(16)------15(16)(15)------16(18)------------
B-/13------13----13----13------------------------16---------------------
G-----------------------------------------------------------------------
D-----------------------------------------------------------------------
A-----------------------------------------------------------------------
E-----------------------------------------------------------------------


e-(18)(16)------21(23)------21------20p21h20-18~------------------------
B----------16-----------------------------------------------------------
G-----------------------------------------------------------------------
D-----------------------------------------------------------------------
A-----------------------------------------------------------------------
E-----------------------------------------------------------------------


e-20---21---20~-----18~-----16-15---16~------16---\13-13~------13~------
B-----------------------------------------------------------------------
G-----------------------------------------------------------------------
D-----------------------------------------------------------------------
A-----------------------------------------------------------------------
E-----------------------------------------------------------------------


e--------------13----------13-------------------------------------------
B-16(18)~---------16(18)------16(18)~~~---------------------------------
G-----------------------------------------------------------------------
D-----------------------------------------------------------------------
A-----------------------------------------------------------------------
E-----------------------------------------------------------------------


e-----------------------------------------------------------------------
B-----------------------------------------------------------------------
G-15(17)(15)p13----13-15(17)~~~~~~---p13h15~~~~~~~~~~~~-----------------
D---------------15------------------------------------------------------
A-----------------------------------------------------------------------
E-----------------------------------------------------------------------


e----------------13h15h16-16-15h16p15p13----13--------------------------
B-------13h14h16-------------------------16----16(18)~~~~~~-------------
G-13h15-----------------------------------------------------------------
D-----------------------------------------------------------------------
A-----------------------------------------------------------------------
E-----------------------------------------------------------------------


Closing...

e-------14----15----16----15(16)~~~~~~~~--------------------------------
B-/13------13----13----13-----------------------------------------------
G-----------------------------------------------------------------------
D-----------------------------------------------------------------------
A-----------------------------------------------------------------------
E-----------------------------------------------------------------------


e-16(18)------(18)(16)------13----13----------16------------------------
B------------------------------16----16(18)------16(18)~~~--------------
G-----------------------------------------------------------------------
D-----------------------------------------------------------------------
A-----------------------------------------------------------------------
E-----------------------------------------------------------------------


e-----------------------------------------------------------------------
B-(18)(16)p13----13--------13h16p13--------13---------------------------
G-------------15----15(17)----------15(17)----15p13---------------------
D---------------------------------------------------15------------------
A-----------------------------------------------------------------------
E-----------------------------------------------------------------------


e---------------------------13----------13----------13------------------
B--------13h16p13--------13----16p13-------16p13-------16p13------------
G-15(17)----------15(17)-------------15----------15----------15---------
D-----------------------------------------------------------------------
A-----------------------------------------------------------------------
E-----------------------------------------------------------------------


e-13--------------------------------------------------------------------
B----16p13----13--------------------------------------------------------
G----------15----15(17)(15)p13----13~-----------------------------------
D------------------------------15---------------------------------------
A-----------------------------------------------------------------------
E-----------------------------------------------------------------------