20130310

QUEEN HAMMER TO FALL TAB - SOLO

Great cover of Hammer To Fall guitar solo by Queen.
TAB helps below.



QUEEN HAMMER TO FALL TAB

PDF >>

e-----------------------------------------------------------------------
B---------------------10---12(14)(12)p10-12---12(14)~~~-----------------
G-6~---7---7/9~~--------------------------------------------------------
D-----------------------------------------------------------------------
A-----------------------------------------------------------------------
E-----------------------------------------------------------------------


e-----------------------------------------------------------------------
B-17(19)~---17---15---14h15h17------------------------------------------
G--------------------------------14---16---16(18)(16)p14-16(18).-14~----
D-----------------------------------------------------------------------
A-----------------------------------------------------------------------
E-----------------------------------------------------------------------



e-16(17)~------16(17)(16)p14-16~------14h16p14--------------------------
B----------------------------------------------17(19)~~-----------------
G-----------------------------------------------------------------------
D-----------------------------------------------------------------------
A-----------------------------------------------------------------------
E-----------------------------------------------------------------------


e-14--------------------------------------------------------------------
B----17p14--------------------------------------------------------------
G----------16-16(18)~~--------------------------------------------------
D-----------------------------------------------------------------------
A-----------------------------------------------------------------------
E-----------------------------------------------------------------------


e-----------------------------------------------------------------------
B-17------15-14---------------------------------------------------------
G-----------------16---14h16p14\13--------------------------------------
D------------------------------------16---14---12---11------------------
A------------------------------------------------------12---12~~\-------
E-----------------------------------------------------------------------


e-----------------------------------------------------------------------
B---------3p2-----------------------------------------------------------
G---------2---------2---------------------------------------------------
D-2---2---2-----2---2---------------------------------------------------
A-0---0---------0---0---------------------------------------------------
E-----------------------------------------------------------------------
  x   x