20130321

QUEEN WE ARE THE CHAMPIONS TAB - INSTRUMENTAL


Pablo Tru plays an instrumental guitar cover of We Are The Champions by Queen.
See the TAB under the video.



QUEEN WE ARE THE CHAMPIONS TAB

PDF >>

e-----------------------------------------------------------------------
B-----------------------------------------------------------------------
G------3---5.--5~--------------3---5.--5~-------------3---5.--5~--------
D-/5----------------------/5---------------------/5---------------------
A-----------------------------------------------------------------------
E-----------------------------------------------------------------------


e-----------------------------------------------------------------------
B-------4---3-----------------------------------------------------------
G-3-0-----------3---3/5~------------------------------------------------
D-----------------------------------------------------------------------
A-----------------------------------------------------------------------
E-----------------------------------------------------------------------


e-----------------------------------------------------------------------
B-----3---3/4---4~----------------3---4---4~----------------------------
G-3---------------------------3-----------------------------------------
D-----------------------------------------------------------------------
A-----------------------------------------------------------------------
E-----------------------------------------------------------------------



e-----------------------------------------------------------------------
B-----3---3/4---4~---4/6-6~---6/8-8~---8/10-10~---10(11)-(11)-----------
G-3---------------------------------------------------------------------
D-----------------------------------------------------------------------
A-----------------------------------------------------------------------
E-----------------------------------------------------------------------


e-----------------------------------------------------------------------
B-11(13)---(11)-11(13)---(11)-11(13)---(11)-11(13)~~~-------------------
G-----------------------------------------------------------------------
D-----------------------------------------------------------------------
A-----------------------------------------------------------------------
E-----------------------------------------------------------------------

Chorus

e-----------------------------------------------------------------------
B-/6------5-6-5---\1----------------------------------------------------
G----------------------2-2/7---\2------3------5-------------------------
D--------------------------------------3------5-------------------------
A--------------------------------------1------3-------------------------
E-----------------------------------------------------------------------


e-----------5-8---5-----------------------------------------------------
B-/6------8--------------3---5-3----------------------------------------
G-----------------------------------------------------------------------
D-------------------------------------7-5-4-----------------------------
A-------------------------------------7-5-4-----------------------------
E-------------------------------------5-3-2-----------------------------


e----------------------6------5---6-5---3---5----------6-5--------------
B-3------1---3-1-----------------------------------6---------6----------
G------------------3----------------------------------------------------
D-----------------------------------------------------------------------
A-----------------------------------------------------------------------
E-----------------------------------------------------------------------


e-6-4-------6-4---------------------------------------------------------
B-------6---------6\------4-----4/6~~-----------------------------------
G-----------------------------5-----------------------------------------
D-----------------------------------------------------------------------
A-----------------------------------------------------------------------
E-----------------------------------------------------------------------

Part 2

e-----------------------------------------------------------------------
B-----------------------------------------------------------------------
G----------3---5.--5~----------------3---5.--5~-------------------------
D-/5---5----------------------/5-5--------------------------------------
A-----------------------------------------------------------------------
E-----------------------------------------------------------------------


e-----------------------------------------------------------------------
B-----------------------------------------------------------------------
G------3---5.--5~------5---5---5-5-5-5(7)---3h5p3-----3---5.--5~--------
D-/5----------------------------------------------5---------------------
A-----------------------------------------------------------------------
E-----------------------------------------------------------------------


e-----------------------------------------------------------------------
B-------------3---3/4---4-4~------3h4----------------3---3/4---4~--\----
G-3-3-3---3-----------------------------3\------/3----------------------
D-----------------------------------------------------------------------
A-----------------------------------------------------------------------
E-----------------------------------------------------------------------


e-----------------------------------------------------------------------
B-------------3---3/4---4---4-4-4---/6-6---6-6-6---6/8-8---8-8-8--------
G-3-3-3---3-------------------------------------------------------------
D-----------------------------------------------------------------------
A-----------------------------------------------------------------------
E-----------------------------------------------------------------------


e-----------------------------------------------------------------------
B-/10-10---10-10-10(11)-10(11)~~~~~-------------------------------------
G-----------------------------------------------------------------------
D-----------------------------------------------------------------------
A-----------------------------------------------------------------------
E-----------------------------------------------------------------------


e-----------------------------------------------------------------------
B-11(13)---(11)-11(13)---(11)-11(13)---(11)-11(13)~~~-------------------
G-----------------------------------------------------------------------
D-----------------------------------------------------------------------
A-----------------------------------------------------------------------
E-----------------------------------------------------------------------

Chorus 2

e-----------------------------------------------------------------------
B-/6------5-6-5---\1----------------------------------------------------
G----------------------2-2/7---\2------3------5-------------------------
D--------------------------------------3------5-------------------------
A--------------------------------------1------3-------------------------
E-----------------------------------------------------------------------


e-----------5-8---5-----------------------------------------------------
B-/6------8--------------3---5-3----------------------------------------
G-----------------------------------------------------------------------
D-------------------------------------7-5-4-----------------------------
A-------------------------------------7-5-4-----------------------------
E-------------------------------------5-3-2--------/----\---------------


e--------------------------------18------17---18-17---15----------------
B-3------1---3-1--------------------------------------------------------
G------------------3/--/--/---------------------------------------------
D-----------------------------------------------------------------------
A-----------------------------------------------------------------------
E-----------------------------------------------------------------------


e-17-----------18-17--------18-16--------18-16--------------------------
B---------18-----------18-----------18-----------18\--------------------
G-----------------------------------------------------------------------
D-----------------------------------------------------------------------
A-----------------------------------------------------------------------
E-----------------------------------------------------------------------


e-----------------------------------------------------------------------
B-16------17(18)--------------------------------------------------------
G------18---------------------------------------------------------------
D-----------------------------------------------------------------------
A-----------------------------------------------------------------------
E-----------------------------------------------------------------------