20130410

CANON ROCK ACOUSTIC TAB

Do you know Canon Rock by FunTwo? or by Mattrach?
Now there is an acoustic version of Canon played by Goljadkin
The original video title is: "Canon rock acoustic version"
See the TAB below.



CANON ROCK ACOUSTIC TAB

GP5 + GP6 + PDF >>


  D        A        Bm7      F#m      G        D        G        A

e-14--------------------------------------------------------------------
B-15-------17-------15-------14-------12-------10-------12-------14-----
G-14-------14-------14-------14-------12-------11-------12-------14-----
D-0--------14-------16-------14-------12-------0--------12-------14-----
A-------------------14-------x--------10----------------10-------12-----
E----------------------------14-----------------------------------------

  D             A                   Bm7             F#m

e-14-----------------15---14--------------------------------------------
B-15------------17-------------17---15--------------14------------------
G-14------------14------------------14--------------14------------------
D-0-------------14------------------16--------------14------------------
A-----------------------------------14--------------x-------------------
E---------------------------------------------------14------------------

  G                   D                      G                   A

e-----------------------------------------------------------------------
B-12-------------12---10--------10-----------12--------12---15---14-----
G-12---14---12--------11---12---11h12p11-x---12---14-------------14-----
D-12------------------0----------------------12------------------14-----
A-10-----------------------------------------10------------------12-----
E-----------------------------------------------------------------------



  D               A               Bm7             F#m

e-----------------------------------------------------------------------
B---------8-7-----------------------------3-2---------------------------
G---------7---7-----------6---7-----------2---4-------------------------
D-----7---7-----7---------5-----------4---4-----4---------2---4---------
A-5-------------------7---7-------2-------------------4---4-------------
E-----------------5-------------------------------2-------2-------------

  G               D               G               A7

e-------------------------3-2-0-----------------0------------0----------
B---------3-2-0-----------3-----3---------0-2-3----------2-3------------
G---------0-----2-----2---2---------------0--------------0--------------
D---------0-------0-----------------------0-----------2--2--------------
A-----x-------------------------------x-----------0---------------------
E-3-------------------------------3-------------------------------------



DOWNLOAD THE COMPLETE TAB HERE



  • click 'Free Download'
  • add your e-mail address
  • you will get an e-mail with your download links (in a few seconds)
  • download the Guitar Pro 6 tab + GP5 + PDF for free
  • and that's all ...


Guitar Pro: a complete workshop for guitarists at an affordable price