20130430

GUANTANAMERA GUITAR TAB (JOSÉ FERNANDEZ DIAZ V.)


Guantanamera is a Cuban folk song and there are many covers on YouTube.
José Fernandez Diaz recorded an authentic version in 2011 that really worth learning.
Nice combination of G C and D7 chords. TAB helps below.



...and there is a short video how to play the main parts


GUANTANAMERA TAB

PDF >>

Intro

e-----3-------0-------2-2---2-------------------------------------------
B-----0-------1-------1-1---1-------------------------------------------
G---0---0---0-------2----------------------  4 times  ------------------
D---------------0-------------------------------------------------------
A---------3---------------0---------------------------------------------
E-3---------------------------0-2---------------------------------------



Verse

e-----3-------0-------2-2---2---------3-------2-------2-2---2-----------
B-----0-------1-------1-1---1---------0-------1-------1-1---1-----------
G---0---0---0-------2---------------0---0---0-------2-------------------
D---------------0-------------------------------0-----------------------
A---------3---------------0---------------3---------------0-------------
E-3---------------------------0-2-3---------------------------0-2-------



e-----3-------0-------2-2---2---------3-------2-------2-2---2-----------
B-----0-------1-------1-1---1---------0-------1-------1-1---1-----------
G---0---0---0-------2---------------0---0---0-------2-------------------
D---------------0-------------------------------0-----------------------
A---------3---------------0---------------3---------------0-------------
E-3---------------------------0-2-3---------------------------0-2-------


e-----3-------0-------2-2---2---------3-------2-------2-2---2-----------
B-----0-------1-------1-1---1---------0-------1-------1-1---1-----------
G---0---0---0-------2---------------0---0---0-------2-------------------
D---------------0-------------------------------0-------------0---------
A---------3---------------0---------------3---------------0-----0-------
E-3---------------------------0-2-3-------------------------------------



Guantanamera...

e-----0-------0-------2-2---2---------3-------2-------2-2---2-----------
B-----1-------1-------1-1---1---------0-------1-------1-1---1-----------
G---0---0---0-------2---------------0---0---0-------2-------------------
D---------------0-------------------------------0-----------------------
A-3-------3---------------0---------------3---------------0-------------
E-----------------------------0-2-3---------------------------0-2-------


e-----3-------0-------2-2---2---------3-------2-------2-2---2-----------
B-----0-------1-------1-1---1---------0-------1-------1-1---1-----------
G---0---0---0-------2---------------0---0---0-------2-------------------
D---------------0-------------------------------0-----------------------
A---------3---------------0---------------3---------------0-------------
E-3---------------------------0-2-3---------------------------0-2-------


 

Last Chorus (THE END)

e-----0-------0-------2-2---2---------3-------2-------2-2---2-----------
B-----1-------1-------1-1---1---------0-------1-------1-1---1-----------
G---0---0---0-------2---------------0---0---0-------2-------------------
D---------------0-------------------------------0-----------------------
A-3-------3---------------0---------------3---------------0-------------
E-----------------------------0-2-3---------------------------0-2-------


e-----3-------0-------2-2---2---------3---------------------------------
B-----0-------1-------1-1---1---------0------------1--------1-----------
G---0---0---0-------2---------------0---0-------0--------2--------2-----
D---------------0----------------------------2--------0--------0--------
A---------3---------------0---------------3-----------------------------
E-3---------------------------0-2-3-------------------------------------


e-2--0----------------3-------------------------------------------------
B-1-----3--1---------0--------------------------------------------------
G-2-----------------0---------------------------------------------------
D-0----------------0----------------------------------------------------
A-----------------2-----------------------------------------------------
E----------------3------------------------------------------------------