20130412

HUNTING HIGH AND LOW BY DENIS SALGADO TAB


Denis Salgado plays a great instrumental cover of A-ha Hunting High And Low.
Check out the band of Denis Salgado here: The Outside Illusion
What a cool sound with that Ibanez guitar. See the TAB under the video.



DENIS SALGADO HUNTING HIGH AND LOW TAB

PDF >>

Verse

e-----------------------------------------------------------------------
B-----------------------------------------------------------------------
G-------------4p2/4~---------2h4-/5---7p5.---4--------------------------
D-0h2--------------------------------------------7-6---\--3-------------
A-----------------------------------------------------------------------
E-----------------------------------------------------------------------


e-----------------------------------------------------------------------
B--------------------------------------3-5.-----------------------------
G-------------4p2/4~---------2---4-5-----5.---(4)---(2)-1~--------------
D-2---------------------------------------------------------------------
A-----------------------------------------------------------------------
E-----------------------------------------------------------------------


e-----------------------------------------------------------------------
B---------------------------------------------6-------------------------
G------------------7p5---7-5/7~------5h7-8.-----8.---7-5h7~-------------
D-3---3/5~--------------------------------------------------------------
A-----------------------------------------------------------------------
E-----------------------------------------------------------------------



e-----------------------------------------------------------------------
B-----------------------------------------------------------------------
G---------5---------4---2/4~------5---\---2~----------------------------
D-5---7-------7-7-------------------------------------------------------
A-----------------------------------------------------------------------
E-----------------------------------------------------------------------

Chorus

e-----------------------------------------------------------------------
B--------------------------/5---h6-6(8)------(8)(6)--p5-----------------
G-7(9)------5h7-----------------------------------------7~-----7/9------
D---------------7~---------------------------------------------------7~-
A-----------------------------------------------------------------------
E-----------------------------------------------------------------------


e-----------------------------------------------------------------------
B-----------------------------------------------------------------------
G--------------4---2/4~------5---\---2~---------------------------------
D-5------5h7------------------------------------------------------------
A-----------------------------------------------------------------------
E-----------------------------------------------------------------------


e-----------------------------------------------------------------------
B--------------------------/5---h6-6(8)------(8)(6)--p5-----------------
G-7(9)------5h7-----------------------------------------7~-----7/9------
D---------------7~---------------------------------------------------7~-
A-----------------------------------------------------------------------
E-----------------------------------------------------------------------


e-----------------------------------------------------------------------
B-----------------------------------------------------------------------
G-10------9~------------------------------------------------------------
D-----------------------------------------------------------------------
A-----------------------------------------------------------------------
E-----------------------------------------------------------------------

Verse 2

e------------------------------------10---------------------------------
B-10/12p10-12~---------10h12-12h13------13.---(12)---(10)p9~------------
G-------------------------------------------------------------10~-------
D-----------------------------------------------------------------------
A-----------------------------------------------------------------------
E-----------------------------------------------------------------------


e-------------------------------------10--------------------------------
B------------/12.---/12~------12-13------13.---(12)---(10)-9~-----------
G-9~------------------------------------------------------------/10~----
D-----------------------------------------------------------------------
A-----------------------------------------------------------------------
E-----------------------------------------------------------------------


e---------------------------------------------13------------------------
B----------/13(15)(13)-13(15)-----13---15-16------16---15-13(15)-(15)~--
G-/12~------------------------------------------------------------------
D-----------------------------------------------------------------------
A-----------------------------------------------------------------------
E-----------------------------------------------------------------------


e-----------------------------------------------------------------------
B-------------13\10-10---12---10(12)---------(13)---(11)p10~------------
G-/12-12-14-------------------------------------------------------------
D-----------------------------------------------------------------------
A-----------------------------------------------------------------------
E-----------------------------------------------------------------------

Chorus 2

e---------------------------------/12--h13-13(15)------(15)(13)p12------
B-/15(17)--------13h15---------------------------------------------15~--
G----------------------14~----------------------------------------------
D-----------------------------------------------------------------------
A-----------------------------------------------------------------------
E-----------------------------------------------------------------------


e-----------------------------------------------------------------------
B-15/17---------------/12~------/10(12)------(13)(11)p10~---------------
G---------14~-----------------------------------------------------------
D-----------------------------------------------------------------------
A-----------------------------------------------------------------------
E-----------------------------------------------------------------------


e---------------------------------/12--h15-15~------13--h15p13p12-10~---
B-/15(17)--------13h15--------------------------------------------------
G----------------------14~----------------------------------------------
D-----------------------------------------------------------------------
A-----------------------------------------------------------------------
E-----------------------------------------------------------------------


e-10h12-----------------------------------------------------------------
B---------10~-----------------------------------------------------------
G------------------------10~---9~---------------------------------------
D-----------------------------------------------------------------------
A-----------------------------------------------------------------------
E-----------------------------------------------------------------------

Solo  (by 2:09)

e-----------------------------------10----------------------------------
B----10-----------------------12-13-------------------------------------
G-/9----9-9-12~------------------------12~------------------------------
D-----------------/10---12-14-------------------14---12h14p12p10~-------
A-----------------------------------------------------------------------
E-----------------------------------------------------------------------
                        x  x

e-/13(15)------(15)(13)---p12-10~------12-------------------------------
B-------------------------------------------12(13)(12)p10-<20>~---------
G-----------------------------------------------------------------------
D--------------------------------------------------------  PM  ---------
A-----------------------------------------------------------------------
E-----------------------------------------------------------------------


e-/17(19)---17(19)(17)p15-----------------------------------------------
B-------------------------17~------15.---15(17)~------------------------
G-----------------------------------------------------------------------
D-----------------------------------------------------------------------
A-----------------------------------------------------------------------
E-----------------------------------------------------------------------


e--------0--------------------------------------------------------------
B-15(17)-----(15)-15---p13~------13.---15(17)(15)p13-15(17)(15)(17)~----
G-----------------------------------------------------------------------
D-----------------------------------------------------------------------
A-----------------------------------------------------------------------
E-----------------------------------------------------------------------


e-/17(19)(17)-17(19)~~--------------/17(19)(17)-17(20)~~----------------
B-----------------------------------------------------------------------
G-----------------------------------------------------------------------
D-----------------------------------------------------------------------
A-----------------------------------------------------------------------
E-----------------------------------------------------------------------


e-----------------------------------------------------------------------
B-----------------------------------------------------------------------
G-----12--10--12--13--12--10h12------12--10--12--13--12--10h12----------
D-10-----------------------------10-------------------------------------
A-----------------------------------------------------------------------
E-----------------------------------------------------------------------
      x   x   x                      x   x   x

e-----------------------------------------------------------------------
B-----------------------------------------------------------------------
G-----12--10--12--13--12--10h12-12~-------------------------------------
D-10--------------------------------------------------------------------
A-----------------------------------------------------------------------
E-----------------------------------------------------------------------
      x   x   x

e-----------------------------------------------------------------------
B--------------1----------0---------------------------------------------
G----------2-------2--2-------2(4)--(2)(4)----(5)(3)-2~-----------------
D-/5---5----------------------------------------------------------------
A-----------------------------------------------------------------------
E-----------------------------------------------------------------------

Chorus 3

e---------------------------------/12--h13-13(15)------(15)(13)p12-10~--
B-/15(17)--------13h15--------------------------------------------------
G----------------------14~----------------------------------------------
D-----------------------------------------------------------------------
A-----------------------------------------------------------------------
E-----------------------------------------------------------------------


e-12~-------------------------------------------------------------------
B-------10~--------/10(12)---------/10---12---10(12)------(13)(11)-10~--
G-----------------------------------------------------------------------
D-----------------------------------------------------------------------
A-----------------------------------------------------------------------
E-----------------------------------------------------------------------


e---------------------------------/12--h15-15~------13--h15p13p12-10~---
B-/15(17)--------13h15--------------------------------------------------
G----------------------14~----------------------------------------------
D-----------------------------------------------------------------------
A-----------------------------------------------------------------------
E-----------------------------------------------------------------------


e-10h12~--------------------------------13(15)------(15)13---12--10h12~-
B----------10~---------12---12------------------------------------------
G-----------------------------------------------------------------------
D-----------------------------------------------------------------------
A-----------------------------------------------------------------------
E-----------------------------------------------------------------------


e-----------------------------------------------------------------------
B-----------------------------------------------------------------------
G---------5---------4---2(4)------(5)(3)-2~-----------------------------
D-5---7-------7-7-------------------------------------------------------
A-----------------------------------------------------------------------
E-----------------------------------------------------------------------

The end

e-15(17)------(17)(15)~~~-----------------------------------------------
B-------------------------------15(17)(15)(17)~~------------------------
G-----------------------------------------------------------------------
D-----------------------------------------------------------------------
A-----------------------------------------------------------------------
E-----------------------------------------------------------------------