20130414

JAMES BLUNT YOU ARE BEAUTIFUL TAB AND LESSON


Short guitar lesson how to play James Blunt - You Are Beautiful with acoustic guitar. There is a small lick in the beginning, a verse and then a chorus part.
For the little changes in the further parts check out the TAB below.



JAMES BLUNT YOU ARE BEAUTIFUL TAB

PDF >>


Intro solo  2x           - CAPO on the 3rd -

e-----------------------------------------------------------------------
B-----1-0---1-------------1-0---1---3---------1---0---1-----------------
G-----------------------------------------------------------------------
D-2-------------------2-----------------------------------------2---3---
A-----------------------------------------------------------------------
E-----------------------------------------------------------------------



Intro / Verse chords

  C             G             Am            F 9

e-3-------------3-------------3-------------3---------------------------
B-1-------------3-------------1-------------1---------------------------
G-0-------------0-------------2-------------2---------------------------
D-2-------------0-------------2-------------3---------------------------
A-3-------------2-------------0-----------------------------------------
E---------------3-------------------------------------------------------



Chorus

  F      G      C             F      G      C

e-1------3------3-------------1------3------3---------------------------
B-1------3------1-------------1------3------1---------------------------
G-2------0------0-------------2------0------0---------------------------
D-3------0------2-------------3------0------2---------------------------
A-3------2------3-------------3------2------3---------------------------
E-1------3--------------------1------3----------------------------------

  F      G      C             Am7

e-1------3------3---3------3--3-----------------------------------------
B-1------3------1---1------1--1-----------------------------------------
G-2------0------0---0------0--2-----------------------------------------
D-3------0------2-------------2-----------------------------------------
A-3------2------3------2------0-----------------------------------------
E-1------3--------------------------------------------------------------

  F      G      Am7           F      G

e-1------3------3-------------1------3---------------------------------
B-1------3------1-------------1------3---------------------------------
G-2------0------2-------------2------0---------------------------------
D-3------0------2-------------3------0---------------------------------
A-3------2------0-------------3------2---------------------------------
E-1------3--------------------1------3---------------------------------




Verse 2  =  Verse 1



Chorus 2

  F      G      C             F      G      C

e-1------3------3-------------1------3------3---------------------------
B-1------3------1-------------1------3------1---------------------------
G-2------0------0-------------2------0------0---------------------------
D-3------0------2-------------3------0------2---------------------------
A-3------2------3-------------3------2------3---------------------------
E-1------3--------------------1------3----------------------------------

  F      G      C             Am7

e-1------3------3---3------3--3-----------------------------------------
B-1------3------1---1------1--1-----------------------------------------
G-2------0------0---0------0--2-----------------------------------------
D-3------0------2-------------2-----------------------------------------
A-3------2------3------2------0-----------------------------------------
E-1------3--------------------------------------------------------------

  F      G     Am 7           F      G      C

e-1------3------3-------------1------3------3--------------------------
B-1------3------1-------------1------3------1--------------------------
G-2------0------2-------------2------0------0--------------------------
D-3------0------2-------------3------0------2--------------------------
A-3------2------0-------------3------2------3--------------------------
E-1------3--------------------1------3---------------------------------



Bridge

  F      Am     F      Am     F      Am     F      G

e-1------0------1------0------1------0------1------3--------------------
B-1------1------1------1------1------1------1------3--------------------
G-2------2------2------2------2------2------2------0--------------------
D-3------2------3------2------3------2------3------0--------------------
A-3------0------3------0------3------0------3------2--------------------
E-1-------------1-------------1-------------1------3--------------------



Chorus 3

  F      G      C             F      G      C

e-1------3------3-------------1------3------3---------------------------
B-1------3------1-------------1------3------1---------------------------
G-2------0------0-------------2------0------0---------------------------
D-3------0------2-------------3------0------2---------------------------
A-3------2------3-------------3------2------3---------------------------
E-1------3--------------------1------3----------------------------------

  F      G      C             Am7

e-1------3------3---3------3--3-----------------------------------------
B-1------3------1---1------1--1-----------------------------------------
G-2------0------0---0------0--2-----------------------------------------
D-3------0------2-------------2-----------------------------------------
A-3------2------3------2------0-----------------------------------------
E-1------3--------------------------------------------------------------

  F      G      C             Am7          Am 7

e-1------3------3---3------3--3------------3----------------------------
B-1------3------1---1------1--1------------1----------------------------
G-2------0------0---0------0--2------------2----------------------------
D-3------0------2-------------2------------2----------------------------
A-3------2------3------2------0------------0----------------------------
E-1------3--------------------------------------------------------------

  F      G      Am7           F      G      C

e-1------3------3-------------1------3------3--------------------------
B-1------3------1-------------1------3------1--------------------------
G-2------0------2-------------2------0------0--------------------------
D-3------0------2-------------3------0------2--------------------------
A-3------2------0-------------3------2------3--------------------------
E-1------3--------------------1------3---------------------------------


The End

Strumming pattern:

down   down    down    down-up      up-down      down-up-down-up