20130428

JIMMY BUFFET BAMA BREEZE TAB (SOLOS)

There are three awesome guitar solos in Jimmy Buffet - Bama Breeze.
One in the beginning, the main solo and another one at the end.
Use a CAPO on the 1st fret to play the chords.



JIMMY BUFFET BAMA BREEZE TAB

PDF >>

Intro solo

e-----------------------------------------------------------------------
B-11(13)------(13)(11)---10---------------------------------------------
G-----------------------------12~-----10~-----10/12-----12h14------10---
D-----------------------------------------------------------------------
A-----------------------------------------------------------------------
E-----------------------------------------------------------------------



Solo 1

e-----------------------------------------------------------------------
B-----------------------------------------------------------------------
G-----------------10/12---10------12(14)------12---10\9h10-12-----------
D-10/12---10------------------------------------------------------------
A-----------------------------------------------------------------------
E-----------------------------------------------------------------------



e-----------------------------------------------------------------------
B-13.--13.--13--11-11-10(11)---10(11)(10)-------------------------------
G-----------------------------------------------------------------------
D-----------------------------------------------------------------------
A-----------------------------------------------------------------------
E-----------------------------------------------------------------------


e-----------------------------------------------------------------------
B-------------------------------------------13~---\---------------------
G-14-12.--12-12p10-12(14)(12)(14)(12)(14)-------------------------------
D-----------------------------------------------------------------------
A-----------------------------------------------------------------------
E-----------------------------------------------------------------------


e----------10-----------------------------------------------------------
B-------------13-10-----------------------------------------------------
G-12(14)------------12-10-12-10----------------------10-----------------
D-------------------------------12-10----------10h12-10-----------------
A-------------------------------------12-10h12--------------------------
E-----------------------------------------------------------------------


e-----------------------------------12--------8-------------------------
B---------10----13/15.--13~---\------------------------8----------------
G-x-10h12----10-12/14.--12~---\--/12--------\9--------------------------
D-x-10-----------------------------------------------10-----------------
A-----------------------------------------------------------------------
E-----------------------------------------------------------------------


e-------------------------------------/6-6-6-6-6-6-6-8-----8-----8------
B------------------------------6------/6-6-6-6-6-6-6-8h10--8h10--8h10---
G-10p9-10p9-10p9-10p9-7-7------7----------------------------------------
D-10---10---10---10---8-8-----------------------------------------------
A-----------------------------------------------------------------------
E-----------------------------------------------------------------------


e-----------------------------------------------------------------------
B-p8----8---------------------------------------------------------------
G----10---10~------9(10)---(9)-7~---------------------------------------
D-----------------------------------------------------------------------
A-----------------------------------------------------------------------
E-----------------------------------------------------------------------



Final solo

e-----------------------------------------------------------------------
B-------------13(15)---------10-----------------------------10----------
G-------10.----------------------12'--10------10------10h12----10----10~
D-10h12----------------------------------12.-------12-------------12----
A-----------------------------------------------------------------------
E-----------------------------------------------------------------------


e--------------10---------------------------13---\----------------------
B----------10-----13p10--------------13--15-----------------------------
G-12(14)----------------12p10-12/14-------------------------------------
D-----------------------------------------------------------------------
A-----------------------------------------------------------------------
E-----------------------------------------------------------------------


e-17---h18-------------17-----------------------------------------------
B----------20(22)-----------20---20------20---(22).--18---------18~-----
G------------------------------------------------------------19---------
D-----------------------------------------------------------------------
A-----------------------------------------------------------------------
E-----------------------------------------------------------------------



Chords   (CAPO on the 1st)

Intro

e-1-------0-------1-------1---------------------------------------------
B-1-------6-------1-------1---------------------------------------------
G-2-------7-------5-------3---------------------------------------------
D-3-------7-------5-------3---------------------------------------------
A-3-------5-------3-------1---------------------------------------------
E-1---------------------------------------------------------------------

Verse

e-1-------3-------1-------1---------------------------------------------
B-1-------3-------1-------1---------------------------------------------
G-2-------5-------3-------2---------------------------------------------
D-3-------5-------3-------3---------------------------------------------
A-3-------3-------1-------3---------------------------------------------
E-1-----------------------1---------------------------------------------

Bridge

e-0-------1-------1-------1-------0-------1-------1-------1-------------
B-6-------1-------1-------1-------6-------1-------1-------1-------------
G-7-------3-------2-------3-------7-------3-------2-------3-------8---7-
D-7-------3-------3-------3-------7-------3-------3-------3-------8---8-
A-5-------1-------3-------1-------5-------1-------3-------1-------6---8-
E-----------------1-------------------------------1-------------------6-

Chorus

e-1-------3-------1-------1---------------------------------------------
B-1-------3-------1-------1---------------------------------------------
G-2-------5-------3-------2---------------------------------------------
D-3-------5-------3-------3---------------------------------------------
A-3-------3-------1-------3---------------------------------------------
E-1-----------------------1---------------------------------------------

SOLO = Verse

Verse 2 = Verse 1

Bridge 2

e-0-------1-------1-------1-------0-------1-------1-------1-------------
B-6-------1-------1-------1-------6-------1-------1-------1-------------
G-7-------3-------2-------3-------7-------3-------2-------3-------------
D-7-------3-------3-------3-------7-------3-------3-------3-------------
A-5-------1-------3-------1-------5-------1-------3-------1-------------
E-----------------1-------------------------------1---------------------


e-6-------6-------------------------------------------------------------
B-6-------6-------------------------------------------------------------
G-8-------7-------------------------------------------------------------
D-8-------8-------------------------------------------------------------
A-6-------8-------------------------------------------------------------
E---------6-------------------------------------------------------------

Chorus 2 = Chorus 1

Final solo

e-1-------1-------0---3---1---------------------------------------------
B-1-------1-------6---3---1---------------------------------------------
G-2-------3-------7---5---3---------------------------------------------
D-3-------3-------7---5---3---------------------------------------------
A-3-------1-------5---3---1---------------------------------------------
E-1---------------------------------------------------------------------

Final Chorus = All the other chorus