20130427

JUANES FIJATE BIEN TAB AND LESSON


Short guitar lesson how to play Juanes - Fijate Bien.
See the TAB under the video.



JUANES FIJATE BIEN TAB

PDF >>

Main Riff

e-----------------------------------------------------------------------
B-----------------------------------------------------------------------
G-x-x-7-x-9-x-9/11-x-x-7/9-x-9/11----x-x-7-x-9-x-9/11-x-x-7/9-x-9/11----
D-x-x---x---x------x-x-----x---------x-x---x---x------x-x-----x---------
A-x-x-5-x-7-x-7/9--x-x-5/7-x-7/9-----x-x-5-x-7-x-7/9--x-x-5/7-x-7/9-----
E-----------------------------------------------------------------------


e-----------------------------------------------------------------------
B-----------------------------------------------------------------------
G-x-x-7-x-6------x-x-7\6-x-------------------x-6---x-x-------6----------
D-x-x---x--------x-x-----x-7-------x-x-4-x-7-x-----x-x-4/6-x------------
A-x-x-5-x-4------x-x-5\4-x---------x-x---x---x-4---x-x-------4----------
E--------------------------5-------x-x-2-x-5-----------2/5-x------------



e-----------------------------------------------------------------------
B-----------------------------------------------------------------------
G-x-x-7-x-9-x-9/11-x-x-7/9-x-9/11----x-x-7-x-9-x-9/11-x-x-7/9-x-9/11----
D-x-x---x---x------x-x-----x---------x-x---x---x------x-x-----x---------
A-x-x-5-x-7-x-7/9--x-x-5/7-x-7/9-----x-x-5-x-7-x-7/9--x-x-5/7-x-7/9-----
E-----------------------------------------------------------------------


e-----------------------------------------------------------------------
B-----------------------------------------------------------------------
G-x-x-7-x-6------x-x-7\6-x-------------------x-6---x-x-------6-----4----
D-x-x---x--------x-x-----x-7-------x-x-4-x-7-x-----x-x-4/6-x------------
A-x-x-5-x-4------x-x-5\4-x---------x-x---x---x-4---x-x-------4-----2----
E--------------------------5-------x-x-2-x-5-----------2/5-x------------



Bridge

  G                        A add 9
e-3------------------------0--------------------------------------------
B-3------------------------0--------------------------------------------
G-4------------------------6--------------------------------------------
D-5------------------------7--------------------------------------------
A-5------------------------7--------------------------------------------
E-3------------------------5--------------------------------------------


2nd guitar

  Bm
e---------7-7------------7---7--------------7-7------------7---7--------
B-x-x-x-x-7-7-x-x--x-x-x-7---7-x-x--x-x-x-x-7-7-x-x--x-x-x-7---7-x-x----
G-x-x-x-x-7-7-x-x--x-x-x-7---7-x-x--x-x-x-x-7-7-x-x--x-x-x-7---7-x-x----
D-x-x-x-x-9-9-x-x--x-x-x-9---9-x-x--x-x-x-x-9-9-x-x--x-x-x-9---9-x-x----
A-x-x-x-x-9-9-x-x--x-x-x-9---9-x-x--x-x-x-x-9-9-x-x--x-x-x-9---9-x-x----
E---------7-7------------7---7--------------7-7------------7---7--------

   F#m
e---------2-2------------2---2--------------2-2------------2---2--------
B-x-x-x-x-2-2-x-x--x-x-x-2---2-x-x--x-x-x-x-2-2-x-x--x-x-x-2---2-x-x----
G-x-x-x-x-2-2-x-x--x-x-x-2---2-x-x--x-x-x-x-2-2-x-x--x-x-x-2---2-x-x----
D-x-x-x-x-4-4-x-x--x-x-x-4---4-x-x--x-x-x-x-4-4-x-x--x-x-x-4---4-x-x----
A-x-x-x-x-4-4-x-x--x-x-x-4---4-x-x--x-x-x-x-4-4-x-x--x-x-x-4---4-x-x----
E---------2-2------------2---2--------------2-2------------2---2--------