20130423

KEITH RICHARDS COCAINE BLUES TAB


Keith Richards - Cocaine Blues. One acoustic guitar and Keith ... sounds brilliant.
TAB helps under the video.



KEITH RICHARDS COCAINE BLUES TAB

GP5 + GP6 + PDF >>

Intro

e---3-----------3---------3-----------0---------------------------------
B-------1-----------1-----------1-----------3-----1---------------------
G---------0-----------0-----------0-----------0-------------------------
D-----------------------------------------------------------------------
A---3-----------3-----------3-----------3-------------------------------
E-----------------------------------------------------------------------


e-----------------------------------------------------------------------
B-------1-----3-1---------1-----3(5)(3)---1-3-----1---1-----------------
G---------2---------2---------------------------2-----------------------
D---------------------3-------------------------------------------------
A---------------0-------------------------------------------------------
E---1-----------------------1-------------------------------------------


e---------0-3-----------------------------------------------------------
B-------------------1-----1-----1-----------0---------------------------
G-------0-------------0---------------0-----------0---------------------
D---------------------------------2-----------0-------------------------
A---3-----3-----3-----------3-------------------------------------------
E---------------------------------------3-------------------------------



e-----------------------------------------------------------------------
B-------1-----------------1-----1-----------1---------------------------
G-------------0-----0-----------------0-----------0---------------------
D---------2-----------0-----------2-----------2-------------------------
A---3-----------------------3-----------3-------------------------------
E---------------3-------------------------------------------------------




DOWNLOAD THIS TAB IN GUITAR PRO



  • click 'Free Download'
  • add your e-mail address
  • you will get an e-mail with your download links (in a few seconds)
  • download the Guitar Pro 6 tab + GP5 + PDF for free
  • and that's all ...


Guitar Pro: a complete workshop for guitarists at an affordable price