20130406

MARTY SCHWARTZ BLUES SOLO IN G


Another blues solo played by Marty Scwartz here.
You can learn how to use the G minor pentatonic scale while playing blues solos.
See the TAB of the cool solo in the beginning.



MARTY SCHWARTZ BLUES SOLO TAB IN G

PDF >>

Check the rhythm part first...

e-----------------------------------------------------------------------
B-----------------------------------------------------------------------
G-x-------5.-x-----------5.-x-4-3-------3.-x-3-3-----3-3-3-3------------
D-x-4-----4.-x-4-4-----4-4.-x-3-2-----2-2.-x-2-2-----2-2-2-2------------
A-x-5-----5.-x-5-5-----5-5.-x-4-3-----3-3.-x-3-3-----3-3-3-3------------
E-----------------------------------------------------------------------


e---------3-----3-----3-----3-------------------------------------------
B---------------------------------6---6---6-----------------------------
G-0-------------------------------5---5---5-----------------------------
D-0-----3---3-2---2-1---1-0---0-x-4-x-4---4-----------------------------
A-2-----------------------------x-5-x-5---5-----------------------------
E-3---------------------------------------------------------------------

and the solo...

e------------------------8-10----------------------8---6----------------
B----8---10(12)---------------10(11)-10-8---8---------------------------
G-/9---9----------------------------------9-----/9---7------------------
D-----------------------------------------------------------------------
A-----------------------------------------------------------------------
E-----------------------------------------------------------------------



e---8(9)-8-6--------------------10(13)------10(13)---8------------------
B--x---------8.-8---p6.--------------------------------10(11)-10.-8---9.
G-x-----------------------------------------------------------------9---
D-----------------------------------------------------------------------
A-----------------------------------------------------------------------
E-----------------------------------------------------------------------


e-----------------------------------------------------------------------
B-11.-11'------8---8~-------------11.-8h11p8---8~-----------------------
G----------------9------9.-------------------9------9.------------------
D-----------------------------------------------------------------------
A-----------------------------------------------------------------------
E-----------------------------------------------------------------------


e------8-11(13)------10.-9--8-----8-------------------------------------
B-8-11-------------------------11---11'---8---8~------------------------
G-------------------------------------------9------9.-------------------
D-----------------------------------------------------------------------
A-----------------------------------------------------------------------
E-----------------------------------------------------------------------


e------------------------------------3-----5.--3h5p3---3-----6'---------
B-8.-------------------------------3---6-3-----------6---6/8------8.----
G-----7\5---p3---3'-----------5(7)--------------------------------------
D--------------5------5.------------------------------------------------
A-----------------------------------------------------------------------
E-----------------------------------------------------------------------


e-10(12)------10-8------------------------------------------------------
B------------------10(11)---10-8~---------------------------------------
G-----------------------------------------------------------------------
D-----------------------------------------------------------------------
A-----------------------------------------------------------------------
E-----------------------------------------------------------------------


e-10'---10'-------------------------------------------------------------
B-11'---11'-------------------------------------------------------------
G-----------12~---p10.--------------------------------------------------
D------------------------12\10---8'-------------------------------------
A-------------------------------------10-10~---8h10.-----8h10-8h10~---8.
E-----------------------------------------------------------------------


e--------------------------3.-------------------------------------------
B----------3---3-----------3.-------------------------------------------
G-5--------3h4-3h4---------4.-------------------------------------------
D-4--------3---3-----------3.-------------------------------------------
A-5--------3h5-3h5---------5.-------------------------------------------
E----------3---3-----------3.-------------------------------------------