20130413

MY HEART WILL GO ON BY THEMAXIBONI TAB AND COVER


My Heart Will Go On cover played by TheMaxiBoni.
Easy instrumental guitar cover.
TAB helps below.



MY HEART WILL GO ON TAB

GP5 + GP6 + PDF >>

Part 1

e-----------------------------------------------------------------------
B-----------------------------------------------------------------------
G-8h9-----9-9---9p8-8---9------9-8---9------11/13------11---------------
D-----------------------------------------------------------------------
A-----------------------------------------------------------------------
E-----------------------------------------------------------------------


e-----------------------------------------------------------------------
B-----------------------------------------------------------------------
G-9-----9-9---9\8-8--8/9---------9h11-----------------------------------
D-------------------------------------9---------------------------------
A-----------------------------------------------------------------------
E-----------------------------------------------------------------------


e-----------------------------------------------------------------------
B-----------------------------------------------------------------------
G-8/9-----9-9---9\8-8---9------9-8---9------11/13------11~--------------
D-----------------------------------------------------------------------
A-----------------------------------------------------------------------
E-----------------------------------------------------------------------



e-----------------------------------------------------------------------
B-----------------------------------------------------------------------
G-9-----9-9---9\8-8---9---------9h11------------------------------------
D------------------------------------9----------------------------------
A-----------------------------------------------------------------------
E-----------------------------------------------------------------------



Part 2

e-----------------------------------------------------------------------
B------------------------10/12------10---9------------------------------
G-8/9------9h11----------------------------11---------------------------
D--------------------9--------------------------------------------------
A-----------------------------------------------------------------------
E-----------------------------------------------------------------------


e-----------------------------------------------------------------------
B-9--h10---9------------------------------------------------------------
G-----------------11---9\8-8---9------8-8---9------11-11/13------11~----
D-----------------------------------------------------------------------
A-----------------------------------------------------------------------
E-----------------------------------------------------------------------


e-----------------------------------------------------------------------
B----------------------10/12------10--\9--------------------------------
G-9~------11~----------------------------11~----------------------------
D------------------9----------------------------------------------------
A-----------------------------------------------------------------------
E-----------------------------------------------------------------------


e-----------------------------------------------------------------------
B-9---10--p9------------------------------------------------------------
G-----------------11---9\8-8---/9------8-8---9--------------------------
D-----------------------------------------------------------------------
A-----------------------------------------------------------------------
E-----------------------------------------------------------------------


e-----------------------------------------------------------------------
B-----------------------------------------------------------------------
G-11-11(13)---(13)(11)---9----------------------------------------------
D-----------------------------------------------------------------------
A-----------------------------------------------------------------------
E-----------------------------------------------------------------------




DOWNLOAD THIS TAB IN GUITAR PRO



  • click 'Free Download'
  • add your e-mail address
  • you will get an e-mail with your download links (in a few seconds)
  • download the Guitar Pro 6 tab + GP5 + PDF for free
  • and that's all ...


Guitar Pro: a complete workshop for guitarists at an affordable price