20130406

PÉTER GRÁF "LEGSZEBB GITÁRTÉMA" TAB


Accidentally found this video while searching for Fender Stratocaster sound test.
Péter Gráf plays his original song "Legszebb Gitártéma"
TAB below.



PÉTER GRÁF LEGSZEBB GITÁRTÉMA TAB             

PDF >>

e-----------------------------------------------------------------------
B-8---------------------------------------------------------------------
G-7h9---7---------------------------------------------------------------
D-----------9p7/9~------\5--------5/7~----------------------------------
A-------------------------------7---------------------------------------
E-----------------------------------------------------------------------


e-----------------------------------------------------------------------
B-10(12)---(10)p8-8/10---h12~---------12\7---p5/7~----------------------
G-----------------------------------------------------------------------
D-----------------------------------------------------------------------
A-----------------------------------------------------------------------
E-----------------------------------------------------------------------


e-----------------------------------------------------------------------
B-10(12)---(10)---8/12-7---7h8------------------------------------------
G--------------------------------7/9~---------9\7-----------------------
D---------------------------------------------------7\9-5---5/7~--------
A---------------------------------------------------------7-------------
E-----------------------------------------------------------------------



e-----------------------------------------------------------------------
B-----------------------------------------------------------------------
G------------------------7---7--h9-<21>---------------------------------
D-7\5-7/9~----------/7h9---9--------------------------------------------
A-----------------------------------------------------------------------
E-----------------------------------------------------------------------


e------------------------------------------------------12-------14------
B-10(12)---(10)---8/12-7---7h8---8/10---/12~------8/10----10/12---------
G-----------------------------------------------------------------------
D-----------------------------------------------------------------------
A-----------------------------------------------------------------------
E-----------------------------------------------------------------------


e-------15---15(17)------(15)-15~------17(19)---(19)(17)p15-17~--17~----
B-12/13-----------------------------------------------------------------
G-----------------------------------------------------------------------
D-----------------------------------------------------------------------
A-----------------------------------------------------------------------
E-----------------------------------------------------------------------


e-17(19)---(17)---15---15\14------14h15---15\12~------------------------
B-----------------------------------------------------------------------
G-----------------------------------------------------------------------
D-----------------------------------------------------------------------
A-----------------------------------------------------------------------
E-----------------------------------------------------------------------


e-12/15p14--------------------------------------------------------------
B----------15----15----------------------------------------------15--\--
G-------------14------14\12\11---------------12---h14p12-14/16----------
D------------------------------12----12/14------------------------------
A---------------------------------12------------------------------------
E-----------------------------------------------------------------------


e-------15--------------------------------------------------------------
B-/15------17-15.-------------------------------------8---8/10---\7---7-
G-------------------16\14---12~---\--------------/7h9-------------------
D-----------------------------------------------------------------------
A-----------------------------------------------------------------------
E-----------------------------------------------------------------------


e-----------------------------------------------------------------------
B-7/8\5~------5/7\3~----///-\\\-----------------------------------------
G----------------------------------2/\4~------------<14>---------//-\\--
D-----------------------------------------------------------------------
A-----------------------------------------------------------------------
E-----------------------------------------------------------------------


e-----------------------------------------------------------------------
B-----3---3/5~------3--h5-5/8~------5---8-8/10~------10(12)(10)p8-10/12~
G-2/4-------------------------------------------------------------------
D-----------------------------------------------------------------------
A-----------------------------------------------------------------------
E-----------------------------------------------------------------------


e-------------7-10/15p12------------------------------------------------
B-----------8------------13p12------------------------------------------
G-----4-7/9--------------------12\9-------------------------------------
D---5-------------------------------10p9--------------------------------
A-7---------------------------------------------------------------------
E-----------------------------------------------------------------------


e------------------12-15\10p7-------------------------------------------
B---------------13------------8p7---------------------------------------
G-------9-12/14-------------------7\4-----------------------------------
D----10-------------------------------5p4-------------------------------
A-12--------------------------------------------------------------------
E-----------------------------------------------------------------------


e---------------8-12/15p12-----------------------------11-14/19-19-19-19
B------------10------------13------------------------12-----------------
G-----5/9h10------------------14-12\9-------------11--------------------
D---7---------------------------------10-------13-----------------------
A-8--------------------------------------12-14--------------------------
E-----------------------------------------------------------------------


e-15----15--------------------------------------------------------------
B----19----19-------17-------15------12-----10-----7(8)(7)p5------------
G-------------16\14----14\12----12\9----9\7----7\5-----------7/9~~~-----
D-----------------------------------------------------------------------
A-----------------------------------------------------------------------
E-----------------------------------------------------------------------