20130404

SWEDISH HOUSE MAFIA - DON'T YOU WORRY CHILD TAB AND GUITAR LESSON

Swedish House Mafia - Don't You Worry Child played by Alex G, Chester, Andy and Andrew. Even better than the original song.
Only two acoustic guitars and 4 gorgeous voices that make it so awesome.
Watch the video how to play both guitar parts. TAB helps below.


SWEDISH HOUSE MAFIA DON'T YOU WORRY CHILD TAB        

PDF >>

Intro

e-----------------------------------------------------------------------
B-2-----2---------3-----3---------3-----3-------3---3-------------------
G-2-----2---------2-----2---------2-----2-------2---2---------0---------
D-2-----2---------4-----4---------0-----0-------0---0--------0----------
A-0---------------2-----------------------------------------------------
E---------------------------------3-----------3---3---3-----3-----------


e-----------------------------------------------------------------------
B-------2---------------2---------------3-------3---3-------------------
G-----2---------------3---------------2---------2---2-----------0-------
D---2---------------4---------------0-----------0---0---------0---------
A-0---------------2-----------------------------------------------------
E---------------------------------3-----------3---3---3-----3-----------


e-----------------------------------------------------------------------
B-------2---------------2---------------3-------3-------------3---------
G-----2---------------3---------------2---------2-------------2---------
D---2---------------4---------------0-----------0-------------0---------
A-0---------------2-----------------------------------------------------
E---------------------------------3-----------3---------------3---------



Verse chords

Andy

e-----------------------------------------------------------------------
B-2h3-----------------------------3-------------------------------------
G-2-------------------------------2-------------------------------------
D-2h4-----------------------------0-------------------------------------
A-2---------------------------------------------------------------------
E---------------------------------3-------------------------------------


e-----------------------------------------------------------------------
B-2h3-----------------------------3-------------------------------------
G-2-------------------------------2-------------------------------------
D-2h4-----------------------------0-------------------------------------
A-2---------------------------------------------------------------------
E---------------------------------3-------------------------------------

Verse - Alex G

e-----------------------------------------------------------------------
B-2---------------3---------------3-------------------------------------
G-2---------------2---------------2-------------------------------------
D-2---------------4---------------0-------------------------------------
A-0---------------2-----------------------------------------------------
E---------------------------------3-------------------------------------


e-----------------------------------------------------------------------
B-2---------------3---------------3-------------------------------------
G-2---------------2---------------2-------------------------------------
D-2---------------4---------------0-------------------------------------
A-0---------------2-----------------------------------------------------
E---------------------------------3-------------------------------------

Verse - Chester

e-----------------------------------------------------------------------
B-2---------------------------2---3-------------------------------------
G-2---------------------------2---2-------------------------------------
D-2---------------------------2---0-------------------------------------
A-2---------------------------0-----------------------------------------
E---------------------------------3-------------------------------------


e-----------------------------------------------------------------------
B-2---------------------------2---3-------------------------------2-----
G-2---------------------------2---2-------------------------------2-----
D-2---------------------------2---0-------------------------------2-----
A-2---------------------------0-----------------------------------0-----
E---------------------------------3-------------------------------------


Chorus chords

e-----------------------------------------------------------------------
B-3---------------3----------------------------2------------------------
G-2---------------2----------------------------2------------------------
D-4---------------0----------------------------2------------------------
A-2--------------------------------------------0------------------------
E-----------------3-----------------------------------------------------


e-----------------------------------------------------------------------
B-3---------------3----------------------------2------------------------
G-2---------------2----------------------------2------------------------
D-4---------------0----------------------------2------------------------
A-2--------------------------------------------0------------------------
E-----------------3-----------------------------------------------------


e-----------------------------------------------------------------------
B-3---------------3----------------------------2------------------------
G-2---------------2----------------------------2------------------------
D-4---------------0----------------------------2------------------------
A-2--------------------------------------------0------------------------
E-----------------3-----------------------------------------------------


e-----------------------------------------------------------------------
B-3---------------3---------------3-------------------------------------
G-2---------------2---------------2-------------------------------------
D-4---------------0---------------0-------------------------------------
A-2---------------------------------------------------------------------
E-----------------3---------------3-------------------------------------


Second guitar - verse        (capo on the 5th)

e-------7---------------7---------------7---------------7---------------
B-----7---------------7---------------8---------------8-----------------
G---7---------------7---------------7---------------7-------------------
D-9---------------9---------------9---------------9---------------------
A-----------------------------------------------------------------------
E-----------------------------------------------------------------------


e-------7---------------7---------------7-----7-------------------------
B-----7---------------7---------------8-------8-------------------------
G---7---------------7---------------7---------7-------------------------
D-9---------------9---------------9-----------9-------------------------
A-----------------------------------------------------------------------
E-----------------------------------------------------------------------


Second guitar - chorus        (Capo on the 5th)

e------------5---------5-------5-------5-------5-------5-------5--------
B--------------5-----5---5---5---5---5---5---5---5---5---5---5---5------
G-7h9/11-9-------9-7-------7-------7-------7-------6-------6------------
D-----------------------------------------------------------------------
A-----------------------------------------------------------------------
E-----------------------------------------------------------------------


e------------5---------5-------5-------5-------5-------5-------5--------
B--------------5-----5---5---5---5---5---5---5---5---5---5---5---5------
G-7h9/11-9-------9-7-------7-------7-------7-------6-------6------------
D-----------------------------------------------------------------------
A-----------------------------------------------------------------------
E-----------------------------------------------------------------------


e------------5---------5-------5--------------5---------5-------5-------
B--------------5-----5---5---5---5--------------5-----5---5---5---5-----
G-7h9/11-9-------9-7-------7-------7h9/11-9-------9-6-------6-----------
D-----------------------------------------------------------------------
A-----------------------------------------------------------------------
E-----------------------------------------------------------------------


e------------5---------5-------5----------------------------------------
B--------------5-----5---5---5---5-8.-----------------------------------
G-7h9/11-9-------9-7-------7-------7.-----------------------------------
D----------------------------------5.-----------------------------------
A-----------------------------------------------------------------------
E-----------------------------------------------------------------------

Second guitar - verse 2        (Capo on the 5th)

e-------7---------------7---------------7---------------7---------------
B-----7---------------7---------------8---------------8-----------------
G---7---------------7---------------7---------------7-------------------
D-9---------------9---------------9---------------9---------------------
A-----------------------------------------------------------------------
E-----------------------------------------------------------------------


e-------7---------------7---------------7-----7-7.----------------------
B-----7---------------7---------------8-------8-8.----------------------
G---7---------------7---------------7---------7-7.----------------------
D-9---------------9---------------9-----------9-9.----------------------
A-----------------------------------------------------------------------
E-----------------------------------------------------------------------


e-----5-------5--------------5---------5-------5-------5-------5--------
B---5---5---5---5--------------5-----5---5---5---5---5---5---5---5------
G-6-------6-------7h9/11-9-------9-7-------7-------7-------7------------
D-----------------------------------------------------------------------
A-----------------------------------------------------------------------
E-----------------------------------------------------------------------


e-----5-------5--------------5---------5-------5-------5-------5--------
B---5---5---5---5--------------5-----5---5---5---5---5---5---5---5------
G-6-------6-------7h9/11-9-------9-7-------7-------7-------7------------
D-----------------------------------------------------------------------
A-----------------------------------------------------------------------
E-----------------------------------------------------------------------


e-------7---------------7---------------7---------------7---------------
B-----7---------------7---------------8---------------8-----------------
G---7---------------7---------------7---------------7-------------------
D-9---------------9---------------9---------------9---------------------
A-----------------------------------------------------------------------
E-----------------------------------------------------------------------


e-------7---------------7---------------7-----7-------------------------
B-----7---------------7---------------8-------8-------------------------
G---7---------------7---------------7---------7-------------------------
D-9---------------9---------------9-----------9-------------------------
A-----------------------------------------------------------------------
E-----------------------------------------------------------------------


Second guitar - chorus 2      (Capo on the 5th)

e------------5---------5-------5-------5-------5-------5-------5--------
B--------------5-----5---5---5---5---5---5---5---5---5---5---5---5------
G-7h9/11-9-------9-7-------7-------7-------7-------6-------6------------
D-----------------------------------------------------------------------
A-----------------------------------------------------------------------
E-----------------------------------------------------------------------


e------------5---------5-------5-------5-------5-------5-------5--------
B--------------5-----5---5---5---5---5---5---5---5---5---5---5---5------
G-7h9/11-9-------9-7-------7-------7-------7-------6-------6------------
D-----------------------------------------------------------------------
A-----------------------------------------------------------------------
E-----------------------------------------------------------------------


e------------5---------5-------5--------------5---------5-------5-------
B--------------5-----5---5---5---5--------------5-----5---5---5---5-----
G-7h9/11-9-------9-7-------7-------7h9/11-9-------9-6-------6-----------
D-----------------------------------------------------------------------
A-----------------------------------------------------------------------
E-----------------------------------------------------------------------


e------------5---------5-------5---7.--7.--7.---------------------------
B--------------5-----5---5---5---5-8.--8.--8.---------------------------
G-7h9/11-9-------9-7-------7-------7.--7.--7.---------------------------
D----------------------------------9.--9.--9.---------------------------
A-----------------------------------------------------------------------
E-----------------------------------------------------------------------

 

Be careful while playing the rhythm of the verse and the chorus part. In the video you just find a way how to play it but its not definitely the same what Andrew plays.