20130414

THE LUMINEERS HO HEY TAB AND LESSON


There is a short guitar lesson how to play Ho Hey by The Lumineers.
Try to strum only the A D G and B strings (except by G) and the song will sound great. 
TAB helps below.



THE LUMINEERS HO HEY TAB

PDF >>

Intro

  C                           F   C                           F

e-----------------------------------------------------------------------
B-1-------1-----1-1-1-1---1-1-1---1-------1-----1-1-1-1---1-1-1---------
G-0-------0-----0-0-0-0---0-0-2---0-------0-----0-0-0-0---0-0-2---------
D-2-------2-----2-2-2-2---2-2-3---2-------2-----2-2-2-2---2-2-3---------
A-3-------3-----3-3-3-3---3-3-3---3-------3-----3-3-3-3---3-3-3---------
E-----------------------------------------------------------------------

  C                           F   C                           F

e-----------------------------------------------------------------------
B-1-------1-----1-1-1-1---1-1-1---1-------1-----1-1-1-1---1-1-1---------
G-0-------0-----0-0-0-0---0-0-2---0-------0-----0-0-0-0---0-0-2---------
D-2-------2-----2-2-2-2---2-2-3---2-------2-----2-2-2-2---2-2-3---------
A-3-------3-----3-3-3-3---3-3-3---3-------3-----3-3-3-3---3-3-3---------
E-----------------------------------------------------------------------



Verse 1

  C                           F   C                           F

e-----------------------------------------------------------------------
B-1-------1-----1-1-1-1---1-1-1---1-------1-----1-1-1-1---1-1-1---------
G-0-------0-----0-0-0-0---0-0-2---0-------0-----0-0-0-0---0-0-2---------
D-2-------2-----2-2-2-2---2-2-3---2-------2-----2-2-2-2---2-2-3---------
A-3-------3-----3-3-3-3---3-3-3---3-------3-----3-3-3-3---3-3-3---------
E-----------------------------------------------------------------------

  C                           F   C

e-----------------------------------------------------------------------
B-1-------1-----1-1-1-1---1-1-1---1-------1-----1-1-1-1---1-1-1-1-------
G-0-------0-----0-0-0-0---0-0-2---0-------0-----0-0-0-0---0-0-0-0-------
D-2-------2-----2-2-2-2---2-2-3---2-------2-----2-2-2-2---2-2-2-2-------
A-3-------3-----3-3-3-3---3-3-3---3-------3-----3-3-3-3---3-3-3-3-------
E-----------------------------------------------------------------------

  Am            G             F   C                           F

e-----------------------------------------------------------------------
B-1-------1-------------------1---1-------1-----1-1-1-1---1-1-1---------
G-2-------2-----0-0-0-0---0---2---0-------0-----0-0-0-0---0-0-2---------
D-2-------2-----0-0-0-0---0---3---2-------2-----2-2-2-2---2-2-3---------
A-0-------0-----2-2-2-2---2---3---3-------3-----3-3-3-3---3-3-3---------
E---------------3-3-3-3---3---------------------------------------------

  C                           F

e-----------------------------------------------------------------------
B-1-------1-----1-1-1-1---1-1-1-----------------------------------------
G-0-------0-----0-0-0-0---0-0-2-----------------------------------------
D-2-------2-----2-2-2-2---2-2-3-----------------------------------------
A-3-------3-----3-3-3-3---3-3-3-----------------------------------------
E-----------------------------------------------------------------------



Verse 2

  C                           F   C                           F

e-----------------------------------------------------------------------
B-1-------1-----1-1-1-1---1-1-1---1-------1-----1-1-1-1---1-1-1---------
G-0-------0-----0-0-0-0---0-0-2---0-------0-----0-0-0-0---0-0-2---------
D-2-------2-----2-2-2-2---2-2-3---2-------2-----2-2-2-2---2-2-3---------
A-3-------3-----3-3-3-3---3-3-3---3-------3-----3-3-3-3---3-3-3---------
E-----------------------------------------------------------------------

  C                           F   C

e-----------------------------------------------------------------------
B-1-------1-----1-1-1-1---1-1-1---1-------1-----1-1-1-1---1-1-1-1-------
G-0-------0-----0-0-0-0---0-0-2---0-------0-----0-0-0-0---0-0-0-0-------
D-2-------2-----2-2-2-2---2-2-3---2-------2-----2-2-2-2---2-2-2-2-------
A-3-------3-----3-3-3-3---3-3-3---3-------3-----3-3-3-3---3-3-3-3-------
E-----------------------------------------------------------------------

  Am            G             F   C                          

e-----------------------------------------------------------------------
B-1-------1-------------------1---1-------1-----1-1-1-1---1-1-1-1-------
G-2-------2-----0-0-0-0---0---2---0-------0-----0-0-0-0---0-0-0-0-------
D-2-------2-----0-0-0-0---0---3---2-------2-----2-2-2-2---2-2-2-2-------
A-0-------0-----2-2-2-2---2---3---3-------3-----3-3-3-3---3-3-3-3-------
E---------------3-3-3-3---3---------------------------------------------



Chorus 1

 
  Am              G               C

e-----------------------------------------------------------------------
B-1---1-1-1---1-1-----------------1---1-1-1---1-1-1---1-1-1---1-1-------
G-2---2-2-2---2-2-0---0-0-0---0-0-0---0-0-0---0-0-0---0-0-0---0-0-------
D-2---2-2-2---2-2-0---0-0-0---0-0-2---2-2-2---2-2-2---2-2-2---2-2-------
A-0---0-0-0---0-0-2---2-2-2---2-2-3---3-3-3---3-3-3---3-3-3---3-3-------
E-----------------3---3-3-3---3-3---------------------------------------

  Am              G           F   C                           F

e-----------------------------------------------------------------------
B-1---1-1-1---1-1-------------1---1-------1-----1-1-1-1---1-1-1---------
G-2---2-2-2---2-2-0---0-0-0---2---0-------0-----0-0-0-0---0-0-2---------
D-2---2-2-2---2-2-0---0-0-0---3---2-------2-----2-2-2-2---2-2-3---------
A-0---0-0-0---0-0-2---2-2-2---3---3-------3-----3-3-3-3---3-3-3---------
E-----------------3---3-3-3---------------------------------------------

  C                           F   C                           F

e-----------------------------------------------------------------------
B-1-------1-----1-1-1-1---1-1-1---1-------1-----1-1-1-1---1-1-1---------
G-0-------0-----0-0-0-0---0-0-2---0-------0-----0-0-0-0---0-0-2---------
D-2-------2-----2-2-2-2---2-2-3---2-------2-----2-2-2-2---2-2-3---------
A-3-------3-----3-3-3-3---3-3-3---3-------3-----3-3-3-3---3-3-3---------
E-----------------------------------------------------------------------

  C                           F

e-----------------------------------------------------------------------
B-1-------1-----1-1-1-1---1-1-1-----------------------------------------
G-0-------0-----0-0-0-0---0-0-2-----------------------------------------
D-2-------2-----2-2-2-2---2-2-3-----------------------------------------
A-3-------3-----3-3-3-3---3-3-3-----------------------------------------
E-----------------------------------------------------------------------


Verse 3

  C                           F   C                           F

e-----------------------------------------------------------------------
B-1-------1-----1-1-1-1---1-1-1---1-------1-----1-1-1-1---1-1-1---------
G-0-------0-----0-0-0-0---0-0-2---0-------0-----0-0-0-0---0-0-2---------
D-2-------2-----2-2-2-2---2-2-3---2-------2-----2-2-2-2---2-2-3---------
A-3-------3-----3-3-3-3---3-3-3---3-------3-----3-3-3-3---3-3-3---------
E-----------------------------------------------------------------------

  C                           F   C

e-----------------------------------------------------------------------
B-1-------1-----1-1-1-1---1-1-1---1-------1-----1-1-1-1---1-1-1-1-------
G-0-------0-----0-0-0-0---0-0-2---0-------0-----0-0-0-0---0-0-0-0-------
D-2-------2-----2-2-2-2---2-2-3---2-------2-----2-2-2-2---2-2-2-2-------
A-3-------3-----3-3-3-3---3-3-3---3-------3-----3-3-3-3---3-3-3-3-------
E-----------------------------------------------------------------------

  Am            G             F   C                          

e-----------------------------------------------------------------------
B-1-------1-------------------1---1-------1-----1-1-1-1---1-1-1-1-------
G-2-------2-----0-0-0-0---0---2---0-------0-----0-0-0-0---0-0-0-0-------
D-2-------2-----0-0-0-0---0---3---2-------2-----2-2-2-2---2-2-2-2-------
A-0-------0-----2-2-2-2---2---3---3-------3-----3-3-3-3---3-3-3-3-------
E---------------3-3-3-3---3---------------------------------------------

  Am            G             F   C                          

e-----------------------------------------------------------------------
B-1-------1-------------------1---1-------1-----1-1-1-1---1-1-1-1-------
G-2-------2-----0-0-0-0---0---2---0-------0-----0-0-0-0---0-0-0-0-------
D-2-------2-----0-0-0-0---0---3---2-------2-----2-2-2-2---2-2-2-2-------
A-0-------0-----2-2-2-2---2---3---3-------3-----3-3-3-3---3-3-3-3-------
E---------------3-3-3-3---3---------------------------------------------



Chorus 2

  Am              G               C

e-----------------------------------------------------------------------
B-1---1-1-1---1-1-----------------1---1-1-1---1-1-1---1-1-1---1-1-------
G-2---2-2-2---2-2-0---0-0-0---0-0-0---0-0-0---0-0-0---0-0-0---0-0-------
D-2---2-2-2---2-2-0---0-0-0---0-0-2---2-2-2---2-2-2---2-2-2---2-2-------
A-0---0-0-0---0-0-2---2-2-2---2-2-3---3-3-3---3-3-3---3-3-3---3-3-------
E-----------------3---3-3-3---3-3---------------------------------------

  Am              G               C

e-----------------------------------------------------------------------
B-1---1-1-1---1-1-----------------1---1-1-1---1-1-1---1-1-1---1-1-------
G-2---2-2-2---2-2-0---0-0-0---0-0-0---0-0-0---0-0-0---0-0-0---0-0-------
D-2---2-2-2---2-2-0---0-0-0---0-0-2---2-2-2---2-2-2---2-2-2---2-2-------
A-0---0-0-0---0-0-2---2-2-2---2-2-3---3-3-3---3-3-3---3-3-3---3-3-------
E-----------------3---3-3-3---3-3---------------------------------------



Bridge

  F                       C       G               C

e-----------------------------------------------------------------------
B-1---1-1-1---1-1-1---1-1-1---1-1-----------------1---1-1-1---1-1-------
G-2---2-2-2---2-2-2---2-2-0---0-0-0---0-0-0---0-0-0---0-0-0---0-0-------
D-3---3-3-3---3-3-3---3-3-2---2-2-0---0-0-0---0-0-2---2-2-2---2-2-------
A-3---3-3-3---3-3-3---3-3-3---3-3-2---2-2-2---2-2-3---3-3-3---3-3-------
E---------------------------------3---3-3-3---3-3-----------------------

  F                       C       G               

e-----------------------------------------------------------------------
B-1---1-1-1---1-1-1---1-1-1---1-1---------------------------------------
G-2---2-2-2---2-2-2---2-2-0---0-0-0---0-0-0---0-0-0---0-0-0-0-0-0-------
D-3---3-3-3---3-3-3---3-3-2---2-2-0---0-0-0---0-0-0---0-0-0-0-0-0-------
A-3---3-3-3---3-3-3---3-3-3---3-3-2---2-2-2---2-2-2---2-2-2-2-2-2-------
E---------------------------------3---3-3-3---3-3-3---3-3-3-3-3-3-------

  F                       C       G               C

e-----------------------------------------------------------------------
B-1---1-1-1---1-1-1---1-1-1---1-1-----------------1---1-1-1---1-1-------
G-2---2-2-2---2-2-2---2-2-0---0-0-0---0-0-0---0-0-0---0-0-0---0-0-------
D-3---3-3-3---3-3-3---3-3-2---2-2-0---0-0-0---0-0-2---2-2-2---2-2-------
A-3---3-3-3---3-3-3---3-3-3---3-3-2---2-2-2---2-2-3---3-3-3---3-3-------
E---------------------------------3---3-3-3---3-3-----------------------



Chorus 3

  Am              G               C

e-----------------------------------------------------------------------
B-1---1-1-1---1-1-----------------1---1-1-1---1-1-1---1-1-1---1-1-------
G-2---2-2-2---2-2-0---0-0-0---0-0-0---0-0-0---0-0-0---0-0-0---0-0-------
D-2---2-2-2---2-2-0---0-0-0---0-0-2---2-2-2---2-2-2---2-2-2---2-2-------
A-0---0-0-0---0-0-2---2-2-2---2-2-3---3-3-3---3-3-3---3-3-3---3-3-------
E-----------------3---3-3-3---3-3---------------------------------------

  Am              G           F   C                           F

e-----------------------------------------------------------------------
B-1---1-1-1---1-1-------------1---1-------1-----1-1-1-1---1-1-1---------
G-2---2-2-2---2-2-0---0-0-0---2---0-------0-----0-0-0-0---0-0-2---------
D-2---2-2-2---2-2-0---0-0-0---3---2-------2-----2-2-2-2---2-2-3---------
A-0---0-0-0---0-0-2---2-2-2---3---3-------3-----3-3-3-3---3-3-3---------
E-----------------3---3-3-3---------------------------------------------



The End

  C                           F   C                           F

e-----------------------------------------------------------------------
B-1-------1-----1-1-1-1---1-1-1---1-------1-----1-1-1-1---1-1-1---------
G-0-------0-----0-0-0-0---0-0-2---0-------0-----0-0-0-0---0-0-2---------
D-2-------2-----2-2-2-2---2-2-3---2-------2-----2-2-2-2---2-2-3---------
A-3-------3-----3-3-3-3---3-3-3---3-------3-----3-3-3-3---3-3-3---------
E-----------------------------------------------------------------------

  C                           F   C

e-----------------------------------------------------------------------
B-1-------1-----1-1-1-1---1-1-1---1-------------------------------------
G-0-------0-----0-0-0-0---0-0-2---0-------------------------------------
D-2-------2-----2-2-2-2---2-2-3---2-------------------------------------
A-3-------3-----3-3-3-3---3-3-3---3-------------------------------------
E-----------------------------------------------------------------------