20130409

TYRONE WELLS SINK OR SWIM TAB (ACOUSTIC)

There is an acoustic version of Tyrone Wells - Sink Or Swim recorded in the KENZ FM radio studio. Easy chords, easy strumming pattern and a cool song.
Capo on the 1st fret. TAB of Tyrone's playing below.



TYRONE WELLS SINK OR SWIM TAB                     

PDF >>

Intro

 C                 F                C                F

e-----------------------------------------------------------------------
B-1-1-1-1-1-1-1-1--1-1-1-1-1-1-1-1--1-1-1-1-1-1-1-1--1-1-1-1-1-1-1-1----
G-0-0-0-0-0-0-0-0--2-2-2-2-0-0-0-0--0-0-0-0-0-0-0-0--2-2-2-2-0-0-0-0----
D-2-2-2-0-2-0-2-0--3-3-3-3-3-3-3-3--2-2-2-0-2-0-2-0--3-3-3-3-3-3-3-3----
A-3-3-3-3-3-3-3-3--3-3-3-3-3-3-3-3--3-3-3-3-3-3-3-3--3-3-3-3-3-3-3-3----
E-----------------------------------------------------------------------


Verse

 C                 F                C                F

e-----------------------------------------------------------------------
B-1-1-1-1-1-1-1-1--1-1-1-1-1-1-1-1--1-1-1-1-1-1-1-1--1-1-1-1-1-1-1-1----
G-0-0-0-0-0-0-0-0--2-2-2-2-0-0-0-0--0-0-0-0-0-0-0-0--2-2-2-2-0-0-0-0----
D-2-2-2-0-2-0-2-0--3-3-3-3-3-3-3-3--2-2-2-0-2-0-2-0--3-3-3-3-3-3-3-3----
A-3-3-3-3-3-3-3-3--3-3-3-3-3-3-3-3--3-3-3-3-3-3-3-3--3-3-3-3-3-3-3-3----
E-----------------------------------------------------------------------

  Am               F                C                F

e-----------------------------------------------------------------------
B-1-1-1-1-1-1-1-1--1-1-1-1-1-1-1-1--1-1-1-1-1-1-1-1--1-1-1-1-1-1-1-1----
G-2-2-2-2-2-2-2-2--2-2-2-2-0-0-0-0--0-0-0-0-0-0-0-0--2-2-2-2-0-0-0-0----
D-2-2-2-2-2-2-2-2--3-3-3-3-3-3-3-3--2-2-2-0-2-0-2-0--3-3-3-3-3-3-3-3----
A-0-0-0-0-0-0-0-0--3-3-3-3-3-3-3-3--3-3-3-3-3-3-3-3--3-3-3-3-3-3-3-3----
E-----------------------------------------------------------------------




Chorus
 
  Am               F                C                G         

e-----------------------------------------------------------------------
B-1-1-1-1-1-1-1-1--1-1-1-1-1-1-1-1--1-1-1-1-1-1-1-1---------------------
G-2-2-2-2-2-2-2-2--2-2-2-2-2-2-2-2--0-0-0-0-0-0-0-0--0-0-0-0-0-0-0-0----
D-2-2-2-2-2-2-2-2--3-3-3-3-3-3-3-3--2-2-2-2-2-2-2-2--0-0-0-0-0-0-0-0----
A-0-0-0-0-0-0-0-0--3-3-3-3-3-3-3-3--3-3-3-3-3-3-3-3--2-2-2-2-2-2-2-2----
E----------------------------------------------------3-3-3-3-3-3-3-3----

  Am               F                C                G         

e-----------------------------------------------------------------------
B-1-1-1-1-1-1-1-1--1-1-1-1-1-1-1-1--1-1-1-1-1-1-1-1---------------------
G-2-2-2-2-2-2-2-2--2-2-2-2-2-2-2-2--0-0-0-0-0-0-0-0--0-0-0-0-0-0-0-0----
D-2-2-2-2-2-2-2-2--3-3-3-3-3-3-3-3--2-2-2-2-2-2-2-2--0-0-0-0-0-0-0-0----
A-0-0-0-0-0-0-0-0--3-3-3-3-3-3-3-3--3-3-3-3-3-3-3-3--2-2-2-2-2-2-2-2----
E----------------------------------------------------3-3-3-3-3-3-3-3----

  F                G

e-----------------------------------------------------------------------
B-1---------------------------------------------------------------------
G-2----------------0----------------------------------------------------
D-3----------------0----------------------------------------------------
A-3----------------2----------------------------------------------------
E------------------3----------------------------------------------------


Bridge

  F#

e-----------------------------------------------------------------------
B-1-1-1-1-1-1-1-1-------------------------------------------------------
G-2-2-2-2-2-2-2-2--------    10x    ------------------------------------
D-3-3-3-3-3-3-3-3-------------------------------------------------------
A-3-3-3-3-3-3-3-3-------------------------------------------------------
E-----------------------------------------------------------------------


Final Chord   :)

e-0---------------------------------------------------------------------
B-0---------------------------------------------------------------------
G-0---------------------------------------------------------------------
D-2---------------------------------------------------------------------
A-3---------------------------------------------------------------------
E-----------------------------------------------------------------------