20130419

ZZ TOP LA GRANGE SOLO TAB AND COVER

Here is a cool cover of the first guitar solo of ZZ TOP La Grange. You'll find some blues elements in the key C. Use heavy distortion and a metal guitar with humbucker pick-ups and set it to the bridge position.
TAB helps below.


ZZ TOP LA GRANGE SOLO TAB                                                      Printable tab here

e----------------8------------------------------------------------------
B-11(13)~~~~~------11p8-11p8----8---------------------------------------
G----------------------------10---10p8-10p8-----------------------------
D-------------------------------------------10-8-10~--------------------
A-----------------------------------------------------------------------
E-----------------------------------------------------------------------


e-----------------------------------------------------------------------
B-----------------------------------------------------------------------
G--------------------------------------------------------------8'--\\\--
D--------8----------8/10~-------------8----------8/10-10~---------------
A-8h10-----10\8---6------------8h10-----10\8---6------------------------
E-----------------------------------------------------------------------


e-----------------------------------------------------------------------
B-----------------------------------------------------------------------
G-----------------------------------------------------------------------
D--------8----------------------------------8----------------8/10-10~---
A-8h10-----10\8---6-8---6------------8/10-----10\8---6-8---6------------
E-------------------------8---6-8~--------------------------------------


e-----------------------------------------------------------------------
B-------11----11----11----11~-------------------------------------------
G-/12------12----12----12----------12\10---8'---------------------------
D-----------------------------------------------10~---------------------
A-----------------------------------------------------------------------
E-----------------------------------------------------------------------


e-----------------------------------------------------------------------
B-----------------------------------------------------------------------
G---------------------------------------------------------------------8'
D--------8---------------------------------------------8-10p8----10-----
A-8h10-----10\8--p6-8---6-----------6---6-8-6-8-8/10----------10--------
E-------------------------8---8-6-8---8---------------------------------


e-----------------------------------------------------------------------
B-----------------------------------------------------------------------
G------------------8'--\\\---------/10~-----8------/10---8--------------
D-10---10---8-10--------------------------------10---------10~----------
A-----------------------------------------------------------------------
E-----------------------------------------------------------------------


e------------------------------------------------------------8----------
B-------11-11---11-------11-11-----11---11-----------------8---11p8-----
G-/12--------------/12---------/12---------10---8-10(12)----------------
D-----------------------------------------------------------------------
A-----------------------------------------------------------------------
E-----------------------------------------------------------------------


e-----------------------------------------------------------------------
B-11p8------------10----------------------------------------------------
G------11-10-8----10-8'-------------------------------------------------
D--------------10-------------8-----------------------------------------
A------------------------10-----10\8---x-6'-----------------------------
E---------------------------------------------8---6-8~------------------


e-----------------------------------------------------------------------
B-----------------------------------------------------------------------
G------------------------------------8---\\\----------------------------
D--------8-8---8----------8/10-10~--------------------------------------
A-8/10-----------10\8---6-----------------------------------------------
E-----------------------------------------------------------------------


e-----------------------------------------------------------------------
B-------11----11----11----11----11----11------11----11----11----11----11
G-/12------12----12----12----12----12---/12------12----12----12----12---
D-----------------------------------------------------------------------
A-----------------------------------------------------------------------
E-----------------------------------------------------------------------


e-----------------------------------------------------------------------
B-------11----11----11----11----11-------11----11----11----11----11-----
G-/12------12----12----12----12----/12------12----12----12----12--------
D-----------------------------------------------------------------------
A-----------------------------------------------------------------------
E-----------------------------------------------------------------------


e-----------------------------------------------------------------------
B-------11----11--------------------------------------------------------
G-/12------12----10---8-------------------------------------------------
D-----------------------10---8-10~--------------------------------------
A-----------------------------------------------------------------------
E-----------------------------------------------------------------------


e-----------------------------------------------------------------------
B-------11----11----11----11----11-------11----11-----------------------
G-/12------12----12----12----12----/12------12--------------------------
D-----------------------------------------------------------------------
A-----------------------------------------------------------------------
E-----------------------------------------------------------------------


e-----------------------------------------------------------------------
B-------11----11----11----11----11-------11----11-------11--------11----
G-/12------12----12----12----12----/12------12----/12-------/12---------
D-----------------------------------------------------------------------
A-----------------------------------------------------------------------
E-----------------------------------------------------------------------


e--------------------------------------------------------8~-------------
B-------11---------------------------------------8-10.------------------
G-/12--------12\10---8'----------------------8h9------------------------
D-------------------------10p8-10~--------------------------------------
A-----------------------------------------------------------------------
E-----------------------------------------------------------------------


e----5-----5-----5-----5-----5-----5-----5-----5-----5------------------
B-----------------------------------------------------------------------
G-----------------------------------------------------------------2~~---
D-5-----5-----5-----4-----4-----4-----3-----3-----3---------------------
A-------------------------------------------------------0---0-3h4-------
E-----------------------------------------------------------------------


e----5-----5-----5-----5-----5-----5-----5-----5-----5------------------
B-----------------------------------------------------------------------
G-----------------------------------------------------------------2~~---
D-5-----5-----5-----4-----4-----4-----3-----3-----3---------------------
A-------------------------------------------------------0---0-3h4-------
E-----------------------------------------------------------------------
 


Are you satisfied with this guitar tab? Send your idea which song or guitar riff should be the next for tabbing by making a TAB REQUEST HERE
    
See more on GUITAR TABS A-Z