20130521

ADELE SKYFALL TAB (FINGERSTYLE COVER BY MAXL)


The Maxl plays an instrumental version of Adele - Skyfall with a single acoustic guitar.
He uses DROPPED D tuning with Capo on the 3rd.
See the TAB of Maxl's playing under the video.



ADELE SKYFALL TAB

PDF >>

Intro

e-----------------------------------------------------------------------
B-0---------------------------------------------------------------------
G-2---------------------------------------------------------------------
D-2---------------------------------------------------------------------
A-0---------------------------------------------------------------------
D-----------------------------------------------------------------------


e-----------------------------------------------------------------------
B-1-------1-------1-------1-------1-------1-------1-------1-0-----------
G-2-------2-------2-------2-------2-------2-------2-------2-2-----------
D-2-------2-----0-3-------3-----3-0-------0-------0-------0-0-----------
A-----0-------0---------------------------------------------------------
D-----------------3---3---3---3---0---0---0---0---0---0-----------------


e-----------------------------------------------------------------------
B-1-------1-------1-------1-------1-------1-------1-------1-0-----------
G-2-------2-------2-------2-------2-------2-------2-------2-2-----------
D-2-------2-----0-3-------3-----3-0-------0-------0-------0-0-----------
A-----0-------0--------------------------------------------------------
D-----------------3---3---3---3---0---0---0---0---0---0-----------------




e-----------------------------------------------------------------------
B-1-------1-------1-------1-------1-------1-------1-------1-0-----------
G-2-------2-------2-------2-------2-------2-------2-------2-2-----------
D-2-------2-----0-3-------3-----3-0-------0-------0-------0-0-----------
A-----0-------0--------------------------------------------------------
D-----------------3---3---3---3---0---0---0---0---0---0-----------------


e-----------------------------------------------------------------------
B-1-------1-------1-------1-------1-------1-------1-------1-0-----------
G-2-------2-------2-------2-------2-------2-------2-------2-2-----------
D-2-------2-----0-3-------3-----3-0-------0-------0-------0-0-----------
A-----0-------0---------------------------------------------------------
D-----------------3---3---3---3---0---0---0---0---0---0-----------------


e-----------------------------------------0---------------0-------------
B-1-------1-------1-------1-0-----0-------0-----0-0-------0-------------
G-2-------2-------2-------2-2-----2-------2-----2-1-------1-------------
D---------------------------------2-------2-----2-2-------2-------------
A-2---2---2---2---2---2---2---------------2---------------2-------------
D---------------------------------2---2---2---2---2---2---2-------------


Verse

e---------0-------------------------------------------------------------
B-0---1---1-------1-------1-------1-------1-----------0---0h1-----------
G-2---2---2-------2-------2-------2-------2-------2-----------2---------
D-2---2---2-----0-3-------3-----3-0-------0-----------------------------
A-------0-----0---------------------------------------------------------
D-----------------3---3-------3---0---0-------0---0---0---0-------------


e-----------------------------------------------------------------------
B-1-------1-------1-------1-------1-------1-------0-----0---------------
G-2-------2-------2-------2-------2-------2-------2-----------2.--------
D-2-------2---2---3-------3-----3-0-------0-----0-----------------------
A-0---0-----------------------------------------------------------------
D-----------------3---3-------3---0---0-------0-------0---0-------------


e-----------------------------------------------------------------------
B-0-------0-------1-------1-------1-------1-------0-----0---------------
G-2-------2---2.--2-------2-------2-------2-----2-------------2.--------
D-2-------2-------3-------3-----3-0-------0-----0-----------------------
A-0---0-----------------------------------------------------------------
D-----------------3---3-------3---0---0-------0---0---0---0-------------


e---------------------------------0-------0---1p0--0-----0-0------------
B-0-------0-------0-------0-------0-------0------3-0-----0-0-----0------
G-2-------2-------2-------2---2.--2-------2--------1-----1-1---2--------
D---------------------------------2-------2--------2-----2-2------------
A-2---2---2---2---2---2---2------------------------2-----2-2------------
D---------------------------------2---2------------2--------------------


e---------------------------------2-------2-----------------------------
B-0---1---1-------1-------1-------1-------1-----------0---0h1-----------
G-2-------2-------2-------2-------2-------2-------2-----------2---------
D-2-------2-----0-3-------3-----0-0-------0-----0-----------------------
A-0-----0-----0---------------------------------------------------------
D-----------------3---3-------0---0---0-------0---0---0---0-------------


e---------------------------------2-------2-----------------------------
B-0-------0-------1-------1-------1-------1-------0-----0---------------
G-2-------2---2.--2-------2-------2-------2-----2-------------2.--------
D-2-------2---2.--3-------3-----0-0-------0-----0-----------------------
A-0---0-----------------------------------------------------------------
D-----------------3---3-------0---0---0-------0-------0---0-------------


e---------------------------------2-------2-----------------------------
B-0-------0-------1-------1-------1-------1-------0-----0---------------
G-2-------2---2.--2-------2-------2-------2-----2-------------2.--------
D-2-------2---2.--3-------3-----0-0-------0-----0-----------------------
A-0---0-----------------------------------------------------------------
D-----------------3---3-------0---0---0-------0-------0---0-------------


e---------------------------------0-------0---1p0--0--------------------
B-0-------0-------0-------0-------0-------0------3-0--------------------
G-2-------2-------2-------2---2.--2-------2--------1-------2.--2.-------
D---------------------------------2-------2--------2-------2.--2.-------
A-2---2---2---2---2---2---2------------------------2--------------------
D---------------------------------2---2------------2--------------------


CHORUS

e---------0-------0---------------------1-1-------1---1-1---------------
B---------1---1---1---1-----------1-----1-1-------1---1-1---------------
G-2-------2---2---2---2-0-4---4---2-----2-2-------2---2-2---------------
D-2-------2---2---2---2-----------3-----3-3-------3---3-3---------------
A-0-------0---0-------0-------------------------------------------------
D-------------------------5---5---3-----------3-------------2---0-------


e-------5-5--p0-----------0-----------------------0-0-0-----------------
B-3-----3-3-------3-------3-1-----3-------3-------3-3-3-----------------
G-2-----2-2-------2-------2-0h2---2-------2-----0-2-2-2---2---0---------
D-0-----0-0---------------0-----------------------2-2-2---2---0---------
A-0-------------------------------2---2---2---2---2-2-2-----------------
D-0---------------0---0-------------------------------------------------


e---------0-------0---------------------1-1-------1---1-1---------------
B---------1---1---1---1-----------1-----1-1-------1---1-1---------------
G-2-------2---2---2---2-0-4---4---2-----2-2-------2---2-2---------------
D-2-------2---2---2---2-----------3-----3-3-------3---3-3---------------
A-0-------0---0-------0-------------------------------------------------
D-------------------------5---5---3-----------3-------------2---0-------


e-------5-5--p0-----------0---------------------------------------------
B-3-----3-3-------3-------3-1-----3-------3-------0-------0-------------
G-2-----2-2-------2-------2-0h2---2-------2-----2---------0-----0-------
D-0-----0-0---------------0-------------------------------------0-------
A-0-------------------------------2---2---2---2---2---2---2---2---------
D-0---------------0---0-------------------------------------------------


Intro ~ ~

e-------------------------0-------2-------2-----------------------------
B-1-------1-------1-------1-------1-------1-------0-------0-------------
G-2-------2-------2-------2-------2-------2-------2-------2-------------
D-2-------2-----0-3-------3-----0-0-------0-----0-0-------0-----0-------
A-0---0-------0---------------------------------------------------------
D-----------------3---3-------0---0---0-------0---0---0---0---0---------


e-------------------------0-------2-------------------------------------
B-1-------1-------1-------1-------1---------------------0---0-----------
G-2-------2-------2-------2-------2---------------------2---2---2.------
D-2-------2-----0-3-------3-----0-0-------------------------------------
A-0---0-------0---------------------------------------------------------
D-----------------3---3-------0---0---------------------0---------------


Verse

e---------------------------------2-------2-----------------------------
B-0-----1-1-------1-------1-------1-------1-------0-----0-0-------------
G-2-----2-2-------2-------2-------2-------2-----2-------------2.--------
D-2---2---2-----0-3-------3-----0-0-------0-----------------------------
A-0-----------0---------------------------------------------------------
D-----------------3---3-------0---0---0-------0---0---0---0-------------


e---------------------------------2-------2-----------------------------
B-0-------0-------1-------1-------1-------1-------0-----0-0-------------
G-2-------2---2.--2-------2-------2-------2-----2-------------2.--------
D-2-------2---2.--3-------3-----0-0-------0-----------------------------
A-0---0-----------------------------------------------------------------
D-----------------3---3-------0---0---0-------0-------0---0-------------


e---------------------------------2-------2-----------------------------
B-0-------0-------1-------1-------1-------1-------0-----0-0-------------
G-2-------2---2.--2-------2-------2-------2-----2-------------2.--------
D-2-------2---2.--3-------3-----0-0-------0-----------------------------
A-0---0-----------------------------------------------------------------
D-----------------3---3-------0---0---0-------0-------0---0-------------


e---------------------------------0-------0---1p0--0--------------------
B-0-------0-------0-------0-------0-------0------3-0--------------------
G-2-------2-------2-------2---2.--2-------2--------1-------2.--2.-------
D---------------------------------2-------2--------2-------2.--2.-------
A-2---2---2---2---2---2---2------------------------2--------------------
D---------------------------------2---2------------2--------------------


Chorus

e---------0-------0---------------------1-1-------1---1-1---------------
B---------1---1---1---1-----------1-----1-1-------1---1-1---------------
G-2-------2---2---2---2-0-4---4---2-----2-2-------2---2-2---------------
D-2-------2---2---2---2-----------3-----3-3-------3---3-3---------------
A-0-------0---0-------0-------------------------------------------------
D-------------------------5---5---3-----------3-------------2---0-------


e-------5-5--p0-----------0-----------------------0-0-0-----------------
B-3-----3-3-------3-------3-1-----3-------3-------3-3-3-----------------
G-2-----2-2-------2-------2-0h2---2-------2-----0-2-2-2---2---0---------
D-0-----0-0---------------0-----------------------2-2-2---2---0---------
A-0-------------------------------2---2---2---2---2-2-2-----------------
D-0---------------0---0-------------------------------------------------


e---------0-------0---------------------1-1-------1---1-1---------------
B---------1---1---1---1-----------1-----1-1-------1---1-1---------------
G-2-------2---2---2---2-0-4---4---2-----2-2-------2---2-2---------------
D-2-------2---2---2---2-----------3-----3-3-------3---3-3---------------
A-0-------0---0-------0-------------------------------------------------
D-------------------------5---5---3-----------3-------------2---0-------


e-------5-5--p0-----------0---------------------------------------------
B-3-----3-3-------3-------3-1-----3-------3-------0-------0-------------
G-2-----2-2-------2-------2-0h2---2-------2-----2---------0-----0-------
D-0-----0-0---------------0-------------------------------------0-------
A-0-------------------------------2---2---2---2---2---2---2---2---------
D-0---------------0---0-------------------------------------------------


Intro ~ ~ THE END

e-------------------------0-------2-------2---------------0-------------
B-1-------1-------1-------1-------1-------1-------0-------0-------------
G-2-------2-------2-------2-------2-------2-------2-------2-------------
D-2-------2-----0-3-------3-----0-0-------0-----0-0-------0-----0-------
A-0---0-------0---------------------------------------------------------
D-----------------3---3-------0---0---0-------0---0---0-------0---------


e-------------------------0-------2-------2-----------------------------
B-1-------1-------1-------1-------1-------1-------0-------0-------------
G-2-------2-------2-------2-------2-------2-------2-------2-------------
D-2-------2-----0-3-------3-----0-0-------0-----0-0-------0-----0-------
A-0---0-------0---------------------------------------------------------
D-----------------3---3-------0---0---0-------0---0---0---0---0---------


e-------------------------0-------2-------2-----------------------------
B-1-------1-------1-------1-------1-------1-------0-------0-------------
G-2-------2-------2-------2-------2-------2-------2-------2-------------
D-2-------2-----0-3-------3-----0-0-------0-----0-0-------0-------------
A-0---0-------0---------------------------------------------------------
D-----------------3---3-------0---0---0-------0---0---0---0-------------


e-0---0-------------------2---2-----------------------------------------
B-1---1---x-x-1---1---x-x-1---1------------------------------0----------
G-2---2---x-x-2---2---x-x-2---2------------------------------2----------
D-2---2---x-x-3---3---x-x-0---0------------------------------2----------
A-0---0---x-x-x---x---x-x-0---0------------------------------0----------
D-------------3---3-------0---0-----------------------------------------