20130531

CLIFF RICHARD SUMMER HOLIDAY TAB AND LESSON (SOLO)


Short lesson how to play the great solo parts in Cliff Richard - Summer Holiday.
See the TAB under the video.



CLIFF RICHARD SUMMER HOLIDAY TAB

PDF >>

Intro solo

e-----------------------------------------------------------------------
B-10/12.---10/12---10-9.---10/12.---10/12-12\10~------------------------
G-11/13.---11/13---11-9.---11/13.---11/13-13\11~------------------------
D-----------------------------------------------------------------------
A-----------------------------------------------------------------------
E-----------------------------------------------------------------------


e-----------------------------------------------------------------------
B-10/12.---10/12---10-9.---10/12.---10/12-12\10~------------------------
G-11/13.---11/13---11-9.---11/13.---11/13-13\11~------------------------
D-----------------------------------------------------------------------
A-----------------------------------------------------------------------
E-----------------------------------------------------------------------



Big solo

e-----------------------------------------------------------------------
B-10/12.---10/12---10-9.---10/12.---10/12-12\10~------------------------
G-11/13.---11/13---11-9.---11/13.---11/13-13\11~------------------------
D-----------------------------------------------------------------------
A-----------------------------------------------------------------------
E-----------------------------------------------------------------------


e-----------------------------------------------------------------------
B-10/12.---10/12---10-9.---10/12.---10/12-12\10~------------------------
G-11/13.---11/13---11-9.---11/13.---11/13-13\11~------------------------
D-----------------------------------------------------------------------
A-----------------------------------------------------------------------
E-----------------------------------------------------------------------


e-----------------------------------------------------------------------
B-10/12~---10/12---10-9.---10/12.---10/12-12\10~------------------------
G-11/13~---11/13---11-9.---11/13.---11/13-13\11~------------------------
D-----------------------------------------------------------------------
A-----------------------------------------------------------------------
E-----------------------------------------------------------------------


e-----------------------------------------------------------------------
B-----------------------------------------------14~---------------------
G-9-11.---11.---11(13)(11)---9--------9---11/13-------------------------
D------------------------------11---9-----------------------------------
A-----------------------------------------------------------------------
E-----------------------------------------------------------------------


e-----------------------------------------------------------------------
B--------------------------------------------------10/12---12\10---9----
G-11---11(13)(11)-------11(13)(11)---9--------9.---11/13---13\11---9----
D--------------------------------------11---9---------------------------
A-----------------------------------------------------------------------
E-----------------------------------------------------------------------


Chords

Intro

e-0-------4-------2-------2-------0-------4-------2-------2-------------
B-0-------5-------2-------4-------0-------5-------2-------4-------------
G-1-------6-------2-------4-------1-------6-------2-------4-------------
D-2-------6-------4-------4-------2-------6-------4-------4-------------
A-2-------4-------4-------2-------2-------4-------4-------2-------------
E-0---------------2---------------0---------------2---------------------


Verse / Solo

e-0-------4-------2-------2-------0-------4-------2-------2-------------
B-0-------5-------2-------4-------0-------5-------2-------4-------------
G-1-------6-------2-------4-------1-------6-------2-------4-------------
D-2-------6-------4-------4-------2-------6-------4-------4-------------
A-2-------4-------4-------2-------2-------4-------4-------2-------------
E-0---------------2---------------0---------------2---------------------


e-0-------4-------2-------2-------2-------2-------0---------------------
B-0-------5-------2-------4-------2-------4-------0---------------------
G-1-------6-------2-------4-------2-------4-------1---------------------
D-2-------6-------4-------4-------4-------4-------2---------------------
A-2-------4-------4-------2-------4-------2-------2---------------------
E-0---------------2---------------2---------------0-------4---3---------


e-2-------2-------0-----------------------------------------------------
B-2-------4-------0-----------------------------------------------------
G-2-------4-------1-----------------------------------------------------
D-4-------4-------2-----------------------------------------------------
A-4-------2-------2-----------------------------------------------------
E-2---------------0-----------------------------------------------------

Chorus

e-2-------2-------0---------------2-------2-------0---------------------
B-2-------4-------0---------------2-------4-------0---------------------
G-2-------4-------1---------------2-------4-------1---------------------
D-4-------4-------2---------------4-------4-------2---------------------
A-4-------2-------2---------------4-------2-------2---------------------
E-2---------------0---------------2---------------0---------------------

                                                         
e-4-------------------------------2---------------2-------(3)-----------
B-4-------------------------------2---------------4-------(5)-----------
G-4-------------------------------3---------------4-------(5)-----------
D-6-------------------------------4---------------4-------(5)-----------
A-6-------------------------------4---------------2-------(3)-----------
E-4-------------------------------2-------------------- end of 2nd ch --

Transponated part

e-1-------5-------3-------3-------1-------5-------3-------3-------------
B-1-------6-------3-------5-------1-------6-------3-------5-------------
G-2-------7-------3-------5-------2-------7-------3-------5-------------
D-3-------7-------5-------5-------3-------7-------5-------5-------------
A-3-------5-------5-------3-------3-------5-------5-------3-------------
E-1---------------3---------------1---------------3---------------------


e-1-------5-------3-------3-------3-------3-------1---------------------
B-1-------6-------3-------5-------3-------5-------1---------------------
G-2-------7-------3-------5-------3-------5-------2---------------------
D-3-------7-------5-------5-------5-------5-------3---------------------
A-3-------5-------5-------3-------5-------3-------3---------------------
E-1---------------3---------------3---------------1--------5---4--------


e-3-------3-------1---------------3-------3-------1---------------------
B-3-------5-------1---------------3-------5-------1---------------------
G-3-------5-------2---------------3-------5-------2---------------------
D-5-------5-------3---------------5-------5-------3---------------------
A-5-------3-------3---------------5-------3-------3---------------------
E-3---------------1-------5---4---3---------------1--------5---4--------


e-3-------3-------------------------------------------------------------
B-3-------5-------------------------------------------------------------
G-3-------5-------------------------------------------------------------
D-5-------5-------------------------------------------------------------
A-5-------3-------------------------------------------------------------
E-3---------------------------------------------------------------------


e-1-------5-------3-------3-------1-------5-------3-------3-------------
B-1-------6-------3-------5-------1-------6-------3-------5-------------
G-2-------7-------3-------5-------2-------7-------3-------5-------------
D-3-------7-------5-------5-------3-------7-------5-------5-------------
A-3-------5-------5-------3-------3-------5-------5-------3-------------
E-1---------------3---------------1---------------3---- till the end ---


Strumming pattern for the chords: 

down    up-down   up
down    up-down   up
down    up-down   up
down    up-down   up