20130503

DENIS SALGADO SUMMER MOVED ON TAB (A-HA)


Great instrumental cover of A-ha - Summer Moved On played by Denis Salgado.
Excellent guitar playing, see the TAB under the video.



DENIS SALGADO SUMMER MOVED ON TAB

PDF >>

Verse 1

e-----------------------------------------------------------------------
B-----------------------------------------------------------------------
G-2/4--\2~--------0h2-2~------------0---0h2----------2/4---2h4p2p0---2--
D-------------------------------2-------------2-------------------------
A-----------------------------------------------------------------------
E-----------------------------------------------------------------------


e-----------------------------------------------------------------------
B-----------------------------------0---0h2-----------------------------
G-2/4---2~--------0h2.--2~------2-------------2------2/4---2h4p2p0---0h2
D-----------------------------------------------------------------------
A-----------------------------------------------------------------------
E-----------------------------------------------------------------------



e-----------------------------------------------------------------------
B-----------------------------------------------------------------------
G-/7-7~---------7-9(11)-------------------------6---4/6~----------------
D---------------------------------------9---9---------------------------
A-----------------------------------------------------------------------
E-----------------------------------------------------------------------


e-----------------------------------------------------------------------
B-----------------------------------------------------------------------
G-/6--h7---7---9~-----------7-7~------7-7/9(11)~---------------6---4/6~-
D------------------------------------------------------9---9------------
A-----------------------------------------------------------------------
E-----------------------------------------------------------------------


e-------------------------------/17(19)---------------------------------
B-----------------------------------------------------------------------
G-/6.---6h7~---9~-------------------------------------------------------
D-----------------------------------------------------------------------
A-----------------------------------------------------------------------
E-----------------------------------------------------------------------



Chorus 1

e-(19)(17)---15---14~---------------------------------------------------
B-------------------------------17(19)------(19)------------------------
G--------------------------16.------------------------------------------
D-----------------------------------------------------------------------
A-----------------------------------------------------------------------
E-----------------------------------------------------------------------


e----------------------------------17(19)-------------------------------
B-15---17---17(19)---(19)(17)--p15--------------------------------------
G-----------------------------------------------------------------------
D-----------------------------------------------------------------------
A-----------------------------------------------------------------------
E-----------------------------------------------------------------------


e-(19)(17)--p15---14~---------------------------------------------------
B-------------------------------17(19)(17)(19)~-------------------------
G--------------------------16.------------------------------------------
D-----------------------------------------------------------------------
A-----------------------------------------------------------------------
E-----------------------------------------------------------------------


e-----------------------------------------------------------------------
B-15---17---17/19---17---15---------15~---------------------------------
G---------------------------14h16---------------------------------------
D-----------------------------------------------------------------------
A-----------------------------------------------------------------------
E-----------------------------------------------------------------------



Verse 2

e-----------------------------------------------------------------------
B-------10~---------8h10-10~------------8---8h10------------------------
G-14/16---------------------------7h9--------------9~-------------------
D-----------------------------------------------------------------------
A-----------------------------------------------------------------------
E-----------------------------------------------------------------------


e-----------------------------------------------------------------------
B---10/12---10h12p10\8---8h10~----------10/12\10-10~------8h10-10~------
G-9---------------------------------------------------------------------
D-----------------------------------------------------------------------
A-----------------------------------------------------------------------
E-----------------------------------------------------------------------


e-----------------------------------------------------------------------
B------8---8h10--------------10/12---.---10\8.---8h10~------------------
G-/9--------------9~----------------------------------------------------
D-----------------------------------------------------------------------
A-----------------------------------------------------------------------
E-----------------------------------------------------------------------


e-----------------------------------------------------------------------
B-/15-15~---------15---/17(19)-----------------(19)(17)---12---14-12/14~
G-----------------------------------------------------------------------
D-----------------------------------------------------------------------
A-----------------------------------------------------------------------
E-----------------------------------------------------------------------


e-------------------12~-------------------------------------------------
B-12/14---h15-15~------------15-15~---------15--h17(19)-----------------
G-----------------------------------------------------------------------
D-----------------------------------------------------------------------
A-----------------------------------------------------------------------
E-----------------------------------------------------------------------


e-----------------------------------------------------------------------
B-(19)(17)---12---14---/14~-----------/14.---14h15---17~----------------
G-----------------------------------------------------------------------
D-----------------------------------------------------------------------
A-----------------------------------------------------------------------
E-----------------------------------------------------------------------



Chorus 2

e-/17(19)----------(19)(17)---15---14~----------------------------------
B-------------------------------------------------17(19)~---------------
G----------------------------------------------16-----------------------
D-----------------------------------------------------------------------
A-----------------------------------------------------------------------
E-----------------------------------------------------------------------


e---------------------------17(19)----------(19)(17)---p15---14~--------
B-15---17---17/19---17---15---------------------------------------------
G-----------------------------------------------------------------------
D-----------------------------------------------------------------------
A-----------------------------------------------------------------------
E-----------------------------------------------------------------------


e-----------------------------------------------------------------------
B----17(19)---------------------15---17---17/19---17---15---------15~---
G-16------------------------------------------------------14h16---------
D-----------------------------------------------------------------------
A-----------------------------------------------------------------------
E-----------------------------------------------------------------------



Solo

e-----------------------------------------------------------------------
B-----------------------------------------------------------------------
G-12p11p9h11p9~---------7---/9\7~---------7p6p4h6p4~--------------------
D-----------------------------------------------------------------------
A-----------------------------------------------------------------------
E-----------------------------------------------------------------------


e-----------------------------------------------------------------------
B-----------------------------------------------------------------------
G-\2---h4-4/6------(7)(6)(7)(6)------p4\2/4\2/4~------------------------
D-----------------------------------------------------------------------
A-----------------------------------------------------------------------
E-----------------------------------------------------------------------


e-----------------------------------------------------------------------
B-----------------------------------------------------------------------
G-/9---h11---h12---p11---p9------\7---9---/11---\9---p7-----------------
D-----------------------------------------------------------------------
A-----------------------------------------------------------------------
E-----------------------------------------------------------------------


e-----------------------------------------------------------------------
B-----------------------------------------------------------------------
G-\6---h7---7h9-------4/6---\4------4/6~--------------------------------
D-----------------7-----------------------------------------------------
A-----------------------------------------------------------------------
E-----------------------------------------------------------------------


e-----------------------------------------------------------------------
B-/15-15~---------15h17(19)------(19)-----------------------------------
G-----------------------------------------------------------------------
D-----------------------------------------------------------------------
A-----------------------------------------------------------------------
E-----------------------------------------------------------------------


e-----------------------------------------------------------------------
B-12---14.---12(14)~---------/17------p15-17(19)------------------------
G-----------------------------------------------------------------------
D-----------------------------------------------------------------------
A-----------------------------------------------------------------------
E-----------------------------------------------------------------------


e-----------------------------------------------------------------------
B-(19)---(19)---------(19)---(19)---------(19)---(19)--------(19)---(19)
G-----------------------------------------------------------------------
D-----------------------------------------------------------------------
A-----------------------------------------------------------------------
E-----------------------------------------------------------------------


e----------------------------17-----------------------17--------17------
B-(19)---(19)---------(19)------(19)~--------17(19)~-----(19)~-----(19)~
G-----------------------------------------------------------------------
D-----------------------------------------------------------------------
A-----------------------------------------------------------------------
E-----------------------------------------------------------------------


e-/17(19)---------------------------------------------------------------
B-----------------------14---15------17(19)-----------------------------
G-----------------/16-------------16------------------------------------
D-----------------------------------------------------------------------
A-----------------------------------------------------------------------
E-----------------------------------------------------------------------


e-----------------------------------17(19)------------------------------
B-15---17---17(19)---(19)(17)---p15-------------------------------------
G-----------------------------------------------------------------------
D-----------------------------------------------------------------------
A-----------------------------------------------------------------------
E-----------------------------------------------------------------------



Chorus 3

e-(19)(17)---15---14~---------------------------------------------------
B-------------------------------17(19)(17)(19)~-------------------------
G--------------------------16.------------------------------------------
D-----------------------------------------------------------------------
A-----------------------------------------------------------------------
E-----------------------------------------------------------------------


e----------------------------------------/17(19)---(19)~----------------
B-(19)(17)-15---17---17(19)-17---p15-\\\--------------------------------
G-----------------------------------------------------------------------
D-----------------------------------------------------------------------
A-----------------------------------------------------------------------
E-----------------------------------------------------------------------


e-(19)(17)---15---\14~------------------------17------------------------
B---------------------------------17(19)~--------(19)~------------------
G------------------------------16---------------------------------------
D-----------------------------------------------------------------------
A-----------------------------------------------------------------------
E-----------------------------------------------------------------------


e-----------------------------------------------------------------------
B-(19)(17)-15---17---17/19-17---15---------15~--------------------------
G----------------------------------14h16--------------------------------
D-----------------------------------------------------------------------
A-----------------------------------------------------------------------
E-----------------------------------------------------------------------



THE END

e-----------------------------------------------------------------------
B-7/8~-----\7~---------7\5~--------------3/5\3-3~-----------------------
G-----------------------------------------------------------------------
D-----------------------------------------------------------------------
A-----------------------------------------------------------------------
E-----------------------------------------------------------------------


e-----------------------------------------------------------------------
B-/8~------p7~----------------------------------------------------------
G----------------------/9(11)------(9)~---------/7(9)------(7)----------
D-----------------------------------------------------------------------
A-----------------------------------------------------------------------
E-----------------------------------------------------------------------


e-----------------------------------------------------------------------
B-5/7---7~---------/10(12)~---------------------------------------------
G-----------------------------------------------------------------------
D-----------------------------------------------------------------------
A-----------------------------------------------------------------------
E-----------------------------------------------------------------------