20130523

ERIC CLAPTON WONDERFUL TONIGHT TAB (LIVE IN HYDE PARK, 1996)

Eric Clapton performs Wonderful Tonight live in Hyde Park, in 1996. 
See the TAB of the solos and the rhythm parts below.



ERIC CLAPTON WONDERFUL TONIGHT TAB                   

PDF >>

Intro

e----------0-----------------------0-----------------------1------------
B-------3--------3--------------3--------3--------------1--------1------
G----4--------------4--------2--------------2--------0--------------0---
D-5--------------------0--4--------------------0-----2-----------------2
A-------------------------------------------------3---------------------
E-----------------------------------------------------------------------


e-------------0--------------------0-----------------------0------------
B-------3--------3--------------3--------3--------------3-------3-------
G----2-----2--------2--------4--------------4--------2-------------2----
D-0--------------------0--5--------------------5--4-------------------4-
A-----------------------------------------------------------------------
E-----------------------------------------------------------------------



e-----------0-----------------------------------------------------------
B--------1-------1-----------3------------------------------------------
G-----0-------------0---------------------------------------------------
D-0h2------------------2--0-----2----4----/7-----5----------------------
A-----------------------------------------------------------------------
E-----------------------------------------------------------------------

Solo

e-----------------------------------------------------------------------
B-----10(12)---(10)---8--10~----------10(12)---(10)-(12)(10)p8----------
G-7-------------------------------7------------------------------9------
D-----------------------------------------------------------------------
A-----------------------------------------------------------------------
E-----------------------------------------------------------------------


e-----------------------------------------10---10--------10h12-10----h12
B-----10(12)---(10)---8--10~------10/12-------------12------------------
G-7---------------------------------------------------------------------
D-----------------------------------------------------------------------
A-----------------------------------------------------------------------
E-----------------------------------------------------------------------


e-----------------------------------------------------------------------
B-----10(12)---(10)-(12)(10)p8---10----------10(12)---(10)---8----------
G-7--------------------------------------7-----------------------9~-----
D-----------------------------------------------------------------------
A-----------------------------------------------------------------------
E-----------------------------------------------------------------------


e-----------------------------------------------------------------------
B-----10(12)---(10)-(12)(10)p8~-----10-----10/12-----13.---15(17)----15~
G-7---------------------------------------------------------------------
D-----------------------------------------------------------------------
A-----------------------------------------------------------------------
E-----------------------------------------------------------------------

Verse

e(------------0---------)-------------0-----------------------0---------
B(------3--------3------)-------3--------3---------------1-------1------
G(---4-----4--------4---)----2-----2--------2---------0-----0-------0---
D(5--------------------5)-4--------------------4--0h2------------------2
A(----------------------)-----------------------------------------------
E(----------------------)-----------------------------------------------


e-------------0---------------------------------------------------------
B-------3--------3------------------------------------------------------
G----2-----2--------2---------------------------------------------------
D-0--------------------0------------------------------------------------
A-----------------------------------------------------------------------
E-----------------------------------------------------------------------


e-------------0--------------------------0--------------------0---------
B-------3--------3--------------3-----------3------------1-------1------
G----4-----4--------4--------2-----2-----------2------0-----0-------0---
D-5--------------------5--4-----------4-----------0h2------------------2
A-----------------------------------------------------------------------
E-----------------------------------------------------------------------


e-------------0---------------------------------------------------------
B-------3--------3------------------------------------------------------
G----2-----2------------------------------------------------------------
D-0---------------------------------------------------------------------
A-------------------0--2------------------------------------------------
E-----------------------------------------------------------------------

Chorus

e--------------0-----------------------0--------------------------------
B-----------------1--------------3--------3-----------------------------
G--------0-----------0--------2-----2--------2--------------------------
D----0h2----2-----------2--0--------------------0-----------------------
A-3---------------------------------------------------------------------
E-----------------------------------------------------------------------


e-----------------------------------------------------------------------
B-------3-----------3-----------3---------------------------------------
G-0--------0-----2-----2-----0-----0------------------------------------
D----0--------4-----------2-----------0h2-0-----------------------------
A--------------------------------------------0--2-----------------------
E-----------------------------------------------------------------------


e-----------------0------------------------0----------------------------
B-----------1--------1---------------3--------3-------------------------
G--------0--------------0---------2-----2--------2----------------------
D----0h2-------2------------2--0----------------------------------------
A-3---------------------------------------------------------------------
E-----------------------------------------------------------------------

Solo 2

e-----------------------------------------------------------------------
B-----10(12)---(10)-(12)(10)p8---10----------10(12)---(10)-(12)(10)-8---
G-7--------------------------------------7-----------------------------9
D-----------------------------------------------------------------------
A-----------------------------------------------------------------------
E-----------------------------------------------------------------------


e-----------------------------------------------------------------------
B-----10(12)---(10)-(12)(10)p8~-----10-----10/12-----13.---15(17)----15~
G-7-7-------------------------------------------------------------------
D-----------------------------------------------------------------------
A-----------------------------------------------------------------------
E-----------------------------------------------------------------------

Verse

Chorus

Bridge

e----3--------3-----------------------3---------------------------------
B-------3--------3-----------------------3------------------------------
G----------0--------0-----------0---------------------------------------
D----------------------0-----0-----0------------------------------------
A-------------------------------------------0--2------------------------
E-3-----------------------3---------------------------------------------


e-----------------0--------------------0--------------------------------
B-----------1--------1-----------3--------3-----------------------------
G--------0--------------0-----2-----2-----------------------------------
D----0h2-------2-----------0--------------------------------------------
A-3---------------------------------------------------------------------
E--------------------------------------------0--2-----------------------


e-----------------------------------------------------------------------
B-------3-----------3--------------3------------------------------------
G----0-----0-----0-----0--------0-----0---------------------------------
D----------------------------2-----------2------------------------------
A-------------------------------------------0--2------------------------
E-3-----------2-----------0---------------------------------------------


e-----------------0-----------------0-----------------------------------
B-----------1--------1-----------3-----3--------------------------------
G--------0--------------0-----2-----------2-----------------------------
D----0h2-------2-----------0--------------------------------------------
A-3------------------------------------------0--2-----------------------
E-----------------------------------------------------------------------


e-----------------------------------------------------------------------
B-1-----3-----1-----0-----3---------------------------------------------
G-0-----0-----2-----0-----2---------------------------------------------
D-2-----0-----2-----0-----0---------------------------------------------
A-3-----2-----0-----x---------------------------------------------------
E-------------------3---------------------------------------------------

Big Solo

e-----------------------------------------------------------------------
B-12.--13.--15~-----/17-15~----------13p12------------------------------
G------------------------------------------14------p12-12~--------------
D-----------------------------------------------------------------------
A-----------------------------------------------------------------------
E-----------------------------------------------------------------------


e-14h15---14.---15.---17.---17(19)--------------------------------------
B---------------------------------------15-15~--------------------------
G-----------------------------------------------------------------------
D-----------------------------------------------------------------------
A-----------------------------------------------------------------------
E-----------------------------------------------------------------------


e-------15-17-17(19)---17(19)---17~-------------------------------------
B-15-17-----------------------------------------------------------------
G-----------------------------------------------------------------------
D-----------------------------------------------------------------------
A-----------------------------------------------------------------------
E-----------------------------------------------------------------------


e-18(20)---17(19)---15'----------------15.------------------------------
B-------------------------17.--17~--------------------------------------
G-----------------------------------------------------------------------
D-----------------------------------------------------------------------
A-----------------------------------------------------------------------
E-----------------------------------------------------------------------


e-----------------------------------------------------------------------
B-12h13p12--------------------------------------------------------------
G----------14---12------------------------------------------------------
D--------------------12h14---12-----------------------------------------
A---------------------------------14\12---10~---------------------------
E-----------------------------------------------------------------------

Verse

Chorus

Oh my darling

e-------3-----2---------------------------------------------------------
B----------3-----3-----3-----------3------------------------------------
G----0--------------2-----------0--------0------------------------------
D----------------------------2------------------------------------------
A-----------------------------------------------------------------------
E-3-----------------------0---------------------------------------------


e-------------------------------------0---------------------------------
B----------1--------------------3-----------3---------------------------
G-------0--------0-----0-----2-----2-----2-----0------------------------
D----2--------------2-----0---------------------------------------------
A-3---------------------------------------------------------------------
E-----------------------------------------------------------------------


Final solo (with a little distortion)

e-----------------------------------------------------------------------
B-----10(12)---(10)---8--10~----------10(12)---(10)-(12)(10)p8----------
G---------------------------------7-7----------------------------9~-----
D-----------------------------------------------------------------------
A-----------------------------------------------------------------------
E-----------------------------------------------------------------------


e---------------------------------10h12.--10h12.--10---h12.--10---h12.--
B-----10(12)---(10)---8--10~--------------------------------------------
G-7---------------------------------------------------------------------
D-----------------------------------------------------------------------
A-----------------------------------------------------------------------
E-----------------------------------------------------------------------


e-----------------------------------------------------------------------
B-----10(12)---10(12)(10)p8---10~---------10(12)---(10)--p8-------------
G-7-7---------------------------------7-----------------------9~--------
D-----------------------------------------------------------------------
A-----------------------------------------------------------------------
E-----------------------------------------------------------------------


e-----------------------------------------------------------------------
B-----10(12)---(10)---8~---10~----10/12~---13.-----15(17)~~~------------
G-7---------------------------------------------------------------------
D-----------------------------------------------------------------------
A-----------------------------------------------------------------------
E-----------------------------------------------------------------------


e-------------------17(19)-17~----------15.---14------------------------
B-15h17p15~------15------------------------------17-15.-----------------
G-----------------------------------------------------------------------
D-----------------------------------------------------------------------
A-----------------------------------------------------------------------
E-----------------------------------------------------------------------


e-----------------------------------------------------------------------
B-15h17---15------------------------------------------------------------
G------------16-16\14-12----14----12------------------------------------
D------------------------14----14----14-12------------------------------
A------------------------------------------14\12-10----12----10---------
E---------------------------------------------------12----12----12------


e----------------------------------------------7~-----------------------
B-----------------------------------------------------------------------
G------------------------------------------5/7~~~-----------------------
D-----------------------------------------------------------------------
A-10h12-10h12-10~-------------------------------------------------------
E-----------------------------------------------------------------------