20130510

FIESTA DE GUERRA TAB (BLEACH OST)

See the full TAB of Fiesta de Guerra - Bleach Ost.



BLEACH OST FIESTA DE GUERRA TAB

PDF >>

Intro

e-----------------------------------------------------------------------
B------------------------------------------------------------3----------
G--------------------------------------------------------1--------------
D-----------0-2-3---2p0-2---h3--p2--h3---2h3---------3------------------
A-------2-3--------------------------------------2----------------------
E-0-1-4--------------------------------------0--------------------------


e-------------0---------------------------------------------------------
B-------0-1-3---3p1-----------------------------------------------------
G-----2---------------2p1-------1-2-4~---p2p1-------1-2-4---2---1-------
D---3---------------------3-2h3---------------3-2h3---------------------
A-0---------------------------------------------------------------------
E-----------------------------------------------------------------------



e-------------------------0~--------------------------------------------
B-------------------------3~--------------------------------------------
G-1h2p1--------1----------1~--------------------------------------------
D-------3--2-------3------3~--------------------------------------------
A-------------------------2~--------------------------------------------
E-------------------------0~--------------------------------------------


e-----------------------------------------------------------------------
B---------------------6---5--h6--p5-------------------------------------
G-----------------5-------------------7---5---4~------------------------
D---------5-/-7---------------------------------------------------------
A-----3-----------------------------------------------------------------
E-1---------------------------------------------------------------------


e---------------------------------------------------------------0~------
B---------------------------------------------------------------3~------
G-1-2---1-------------------------------------------------------1~------
D-----3---2-3---p2p0---0-----------------------------0-2-3------3~------
A--------------------3---3p2p0-----0-----------0-2-3------------2~------
E------------------------------4-----1---0-1-4------------------0~------


And the solo for these chords

  Am        G         F         E7

e-5---------3---------1---------0---------------------------------------
B-5---------3---------1---------0---------------------------------------
G-5---------4---------2---------1---------------------------------------
D-7---------5---------3---------0---------------------------------------
A-7---------5---------3---------2---------------------------------------
E-5---------3---------1---------0---------------------------------------


Solo (forever....)

e----------------------------3p1-0---0-1-3-3/4.---3.---1.---0-----------
B-1p0---0-1p0-1-3.---1.------------3-------------------------------3----
G-----2-----------------------------------------------------------------
D-----------------------------------------------------------------------
A-----------------------------------------------------------------------
E-----------------------------------------------------------------------


e-0---------------------------------------------------------------------
B---3-1-0-1-0---0-------------------------------------------------------
G-------------2-----2.---0----------------------------------------------
D----------------------------3.--2-3p2-0---0----------------------------
A----------------------------------------3---3p2-0-2p0---0--------------
E------------------------------------------------------4---4-1-0-1------


e-------------------------0-1-3-3-3/5---3.---5---5-7---7.---7/8---7-----
B-------------------0-1-3-----------------------------------------------
G---------------0-2-----------------------------------------------------
D---------0-2-3---------------------------------------------------------
A---0-2-3---------------------------------------------------------------
E-4---------------------------------------------------------------------


e-8---7-8.------------10p8p7----7---8-7.--------------------7--8--7-----
B----------------------------10------------10.-------9--10----------10.-
G-----------------------------------------------------------------------
D-----------------------------------------------------------------------
A-----------------------------------------------------------------------
E-----------------------------------------------------------------------


e-10p8p7-----7--10p8p7-----7--10p8p7------7--10p8p7------7-8-10.--------
B--------10------------10-------------10-------------10-----------------
G-----------------------------------------------------------------------
D-----------------------------------------------------------------------
A-----------------------------------------------------------------------
E-----------------------------------------------------------------------


e-13p12p10----10-12-13p12p10----10-12-13p12p10----10-12-13p12p10--------
B----------13----------------13----------------13----------------13-----
G-----------------------------------------------------------------------
D-----------------------------------------------------------------------
A-----------------------------------------------------------------------
E-----------------------------------------------------------------------


e-10-12-13----12---10---8---7---8---7h8p7----7--------------------------
B-----------------------------------------10-----10---9---10-9---6------
G-----------------------------------------------------------------------
D-----------------------------------------------------------------------
A-----------------------------------------------------------------------
E-----------------------------------------------------------------------


e---------------5-7-8---8.---8/10---8.--7----5---5---4------------------
B-5-6p5---5-6-8------------------------------------------6---5----------
G-------7---------------------------------------------------------------
D-----------------------------------------------------------------------
A-----------------------------------------------------------------------
E-----------------------------------------------------------------------


e-1p0---0---------------------------------------------------------------
B-----3---3p1-1-1---0.---1p0--------------------------------------------
G----------------------------2-4p2-2p0-0--------------------------------
D----------------------------------------3-3p2-2-2h3---2.---2p0---0-----
A---------------------------------------------------------------3---3---
E-----------------------------------------------------------------------


e-----------------------------------------------0h1---0-----------------
B-----------------------------------------0-1-3-------------------------
G-------------------------------------0-2-------------------------------
D---------------0-----------0-2-3-2-3-----------------------------------
A-3p2p0---0-2-3---3p2p0-2-3---------------------------------------------
E-------4---------------------------------------------------------------


e-----------------------------------------------------------------------
B-----------------------------------------------------------------------
G------------------------5.-----4-----4----------------------2----------
D-5---5-5---5.---3-3-3--------2-----2-----2.-------------5-------3.---2-
A-----------------------------------------------------------------------
E-----------------------------------------------------------------------


e-----------------------------------------------------------------------
B-----------------------------------------------------------------------
G---------9.-----7.----7----------5.----5--------4~---------------------
D-6---7--------5-----5-----5.---3-----3-----3.---2~---------------6.----
A-----------------------------------------------------------------------
E-----------------------------------------------------------------------


e-----------------------------------------------------------------------
B-----------------------------------------------------------------------
G---9.----9----------7.----7----------5.----5--------4~-----------------
D-7-----7-----7.---5-----5-----5.---3-----3-----3.---2~-----------6.----
A-----------------------------------------------------------------------
E-----------------------------------------------------------------------


e-----------------------------------------------------------------------
B-----------------------------------------------------------------------
G---9.----7.----5.----4.----5.----7.----9.----7.----5.----4~------------
D-7-----5-----3-----2-----3-----5-----7-----5-----3-----2~--------------
A-----------------------------------------------------------------------
E-----------------------------------------------------------------------


e-----------------------------------------------------------------------
B-----------------------------------------------------------------------
G-5---7---9.----------------4---5---4---5---7---7/9---7---5---4---5---7-
D-3---5---7.------------7-----------------------------------------------
A-----------------------------------------------------------------------
E-----------------------------------------------------------------------


e-----------------------------------------------------------------------
B-----------------------------------------------------------------------
G-4---5-------4-----------5---4---------------4---5~---\----------------
D---------7-------5---7-----------7---6---7-----------------------------
A-----------------------------------------------------------------------
E-----------------------------------------------------------------------


e-----------------------------------------------------------------------
B-3p1-0---0-1-3p1-0---0-1-3p1-0---0h1p0---0-----------------------------
G-------2-----------2-----------2-------2-----2-0-----------------------
D---------------------------------------------------3.---2-3---p2-------
A-----------------------------------------------------------------------
E-----------------------------------------------------------------------


e------------------------------------------------------0-1-3-5----------
B--------------------------------1----------------0-1-3-----------------
G---------------------------2.------------------------------------------
D-3---p2-0--------0-----------------------------------------------------
A------------3.---------------------------------------------------------
E-----------------------------------------------------------------------


e-5--4---5---7---8---7---5----------------------------------------------
B-----------------------------------------------------------------------
G-----------------------------------------------------------------------
D-----------------------------------------------------------------------
A-----------------------------------------------------------------------
E-----------------------------------------------------------------------


e---------------5---5-7-8-5-7-8-10--8-8---7-----------------------------
B---5-6-8-5-6-8---8---------------------------10------------------------
G-7---------------------------------------------------------------------
D-----------------------------------------------------------------------
A-----------------------------------------------------------------------
E-----------------------------------------------------------------------


e-7-8-10-8-7-8-10-8-7-8-10-8-7-8-10-8-7-8-10-8---7----------------------
B----------------------------------------------------10-----------------
G-----------------------------------------------------------------------
D-----------------------------------------------------------------------
A-----------------------------------------------------------------------
E-----------------------------------------------------------------------


e-10p8p7----7-8-10p8p7----7-8-10-10---10-10/12---10.--8---7-8.---7------
B--------10------------10-----------------------------------------------
G-----------------------------------------------------------------------
D-----------------------------------------------------------------------
A-----------------------------------------------------------------------
E-----------------------------------------------------------------------


e-----------------------------------------------------------------------
B-8---------------------------------------------------------------------
G---9-------------------------------------------------------------------
D-----10p9--------------------------------------------------------------
A-----------------------------------------------------------------------
E-----------------------------------------------------------------------


e-----------------------------------------------------------------------
B-----------------------------------------------------------------------
G-----------------------------------------------------------------------
D-3---2---3---2-0-------------------------------------------------------
A-------------------3---2-3---2.------0-------0-----0-------------------
E-----------------------------------------4-------4-----4---1-0---1.----


e-----------------------------------------------------------------------
B-----------------------------------------------------------------------
G-----------------------------------------------------------------------
D---------0-2---2---2---1h2---2---2-------------------------------------
A---0-2-3---------------------------------------------------------------
E-4---------------------------------------------------------------------


e-----------------------------------------------------------------------
B---------------0---0---0---1---0---1---0-------------------------------
G-----------1h2---------------------------------1.----------------------
D---------0-------------------------------------------------------------
A-------2---------------------------------------------------------------
E-0-1-4-----------------------------------------------------------------