20130527

GUNS N ROSES ROCKET QUEEN SOLO TAB (THOMAS75S)


Thomas75s plays Rocket Queen solo by Guns N Roses with a Gibson LesPaul. 
See the TAB below.



GUNS N ROSES ROCKET QUEEN SOLO TAB

PDF >>

e-----------------------------------------------------------------------
B-----------------------------------------------------------------------
G-x-x-11(13)---(11)---11(13)---(11)p9-11.--11(13).---9'-----------------
D-x-x-----------------------------------------------------11~~----------
A-----------------------------------------------------------------------
E-----------------------------------------------------------------------


e-----------------------------------------------------------------------
B-----------------------------------------------------------------------
G-----------------------9---11(13)------(11)p9-11(13)------11(13)-11~---
D-x-x-11\----------9h11-------------------------------------------------
A------------/11--------------------------------------------------------
E-----------------------------------------------------------------------



e-----------------------------------------------------------------------
B------------------------------------------------------------12(14)-----
G-9~------8h9p8h9/11~--------11(13)---11(13)---(13)---(11)-9------------
D-----------------------9h11--------------------------------------------
A-----------------------------------------------------------------------
E-----------------------------------------------------------------------


e---------------------------------------------------------11(12)---(11)-
B-12~-------------------(14)---(12)-12~---------------------------------
G-------11(13)---(11)-9-------------------(13)---(11)---9---------------
D-----------------------------------------------------------------------
A-----------------------------------------------------------------------
E-----------------------------------------------------------------------


e-7-------------------14(16)---(14)-(16)---(14)p12-14.--14(16).--12-----
B---7-----------------------------------------------------------------14
G-----8(9)---(8)--------------------------------------------------------
D----------------9------------------------------------------------------
A------------------9----------------------------------------------------
E-----------------------------------------------------------------------


e-------------------12-12-12----------------14(16)---14(16)---(14)p12---
B-12----14-14p12-------------12-14-14-12--------------------------------
G----13----------13----------------------13-----------------------------
D-----------------------------------------------------------------------
A-----------------------------------------------------------------------
E-----------------------------------------------------------------------


e-14.---14(16)-12----------------------14-------------------------------
B-------------------14--(16)------(16)----(16)(14)p12----12~---\\\------
G-----------------------------------------------------13----------------
D-----------------------------------------------------------------------
A-----------------------------------------------------------------------
E-----------------------------------------------------------------------


e-----------9.-11.-12.--11h12p11p9----11----9h11p9----9----9------------
B-/12~-----------------------------12----12--------12---12---12---------
G-----------------------------------------------------------------------
D-----------------------------------------------------------------------
A-----------------------------------------------------------------------
E-----------------------------------------------------------------------


e----------------------------------------------------------9h11h12p11p9-
B-10h12p10-9h10p9-10p9p7-9p7---8p7p5-7p5\4--------7h9h10/12-------------
G--------------------------------------------6h8h9----------------------
D-----------------------------------------------------------------------
A-----------------------------------------------------------------------
E-----------------------------------------------------------------------


e-12(14)------12.--11(12)-(11)---------------------------11---(12)~~~~--
B------------------------------12-------------------12------------------
G---------------------------------11~---------11-11---------------------
D-----------------------------------------------------------------------
A-----------------------------------------------------------------------
E-----------------------------------------------------------------------