20130517

LUTHER VANDROSS DANCE WITH MY FATHER TAB (INSTRUMENTAL COVER BY WANIIS)

Waniis J plays Luther Vandross - Dance With My Father with a single acoustic guitar.
Great fingerstyle arrangement. Standard tuning, CAPO on the 1st fret.
TAB helps below.


WANIIS DANCE WITH MY FATHER TAB

GP5 + GP6 + PDF >>

Capo on the 1st

Intro

e---9---10--12--12------10--9-------------------------------------------
B---10--------------10--10--10--12---------x--12------12--x-------------
G---9----------------------------------11--x--11--11------x-------------
D------------------------------------------x--------------x-------------
A---0-----------0-------------------11-----x--11----------x-------------
E-----------------------------------------------------------------------


e-------7--7h9---7-----------------------------7------------------------
B---10-------------------10--x--10---------10--------10-----------------
G--------------------9-------x---------9-----------------9--------------
D----------------------------x------0-----------------------------------
A---9------------9-----------x------------------------------------------
E-----------------------------------------------------------------------


e------------5--------5-------------------------------------------------
B---------7--7-----------7----------------------------------------------
G------7-----7-----7----------------------------------------------------
D---0-------------------------------------------------------------------
A-----------------------------------------------------------------------
E-----------------------------------------------------------------------




Verse

e-----------------------------------------0-----------------------------
B--------------------0h2--0---0-----------0-----0-----------------------
G--------------------2------2----------------1-----1--------------------
D------2--0h2--2--2--------------------2--------------------------------
A---0-------------------------------2-----------------------------------
E--------------------------------0--------------------0-----------------


e-----------------------------------------------------------------------
B---------0-------------------------------------------------------------
G------2-----0h2--2--2--2--2-----2--2--2p1------------------------------
D-----------------------------0---------------4--2----------------------
A-----------------------------------------------------------------------
E---2-------------------------------------------------------------------


e-----------------------------------------0-----------------------------
B--------------------------0-----0h2-0-------0-----0--------------------
G--------------------2--------------------------1-----------------------
D---------1/2--2--2-----2--------------2--------------------------------
A---0-------------------------------------------------------------------
E-----------------------------0-----------------------------------------


e-----------------------------------------------------------------------
B---------0-------------------------------------------------------------
G------2-----0h2--2--2--2--2-----2--2--2p1------------------------------
D-----------------------------0---------------4--2----------------------
A---------------------------------------------------0-------------------
E---2-------------------------------------------------------------------




DOWNLOAD THE COMPLETE TAB HERE



  • click 'Free Download'
  • add your e-mail address
  • you will get an e-mail with your download links (in a few seconds)
  • download the Guitar Pro 6 tab + GP5 + PDF for free
  • and that's all ...


Guitar Pro: a complete workshop for guitarists at an affordable price