20130529

RAPSODIA TAB (PORTUGUESE FOLK SONG)

Evandro Meneses (Vavandro) plays here Rapsodia with a special 15 stringed guitar. There are 9 songs in a row: Charamba, Saudade, Bravos, Doce Esperanca, Tirana, Lira, San Macaio, Suspiros and Sapateia. On the record there is another instrument in the background! TAB below.


RAPSODIA TAB

PDF >>

Charamba

e---------3-------0-------------------3-------1-1-1-------0-1---3-------
B---------1-------1-------------------1-------1-1-1---------------------
G-0-------0-------0-------------------2-------2-2-2---------------------
D---------2-------2-----------0---2---3-------3-3-3---------------------
A-3-------3-------3-------3---------------------------------------------
E-----------------------------------------------------------------------


e-5---3-1---0-0---------------------------------------------------------
B-----------------3-1---------------------------------------------------
G-----------------------3--2--------------------------------------------
D-----------------------------------------------------------------------
A-----------------------------------------------------------------------
E-----------------------------------------------------------------------



e-------0------1--0--3--1--5---0-0-1-----0------------------------------
B-----------3-------------------------3-----3--1------------------------
G-2-2-2-------------------------------------------3---------------------
D-----------------------------------------------------------------------
A----------------------------------------------------0------------------
E-----------------------------------------------------------------------


e-0-0-0---0---5-5-5-5-5---7-/-9---9-9-9---9--------------9-9-9---9------
B-----------------------------------------------------------------------
G-------------------------------------------------0---------------------
D-----------------------------------------------------------------------
A-----------------------------------------------------------------------
E-----------------------------------------------------------------------


e-10-------10-10-10---10--------------10-10-10---10------10-------------
B-----------------------------------------------------------------------
G-----------------------------------------------------------------------
D-0----------------------------0----------------------------------------
A-----------------------------------------------------------------------
E-----------------------------------------------------------------------


e-9-9-9-9-9-9-9------9-9-9-9------7---5---5----------5-5-5------5-5-5---
B---------------------------------------------6------6-6-6------6-6-6---
G-----------------------------------------------------------------------
D-----------------------------------------------------------------------
A-----------------------------------------------------------------------
E-----------------------------------------------------------------------


e-5------6-6-6-6-6-6-6-6-6-6-6------8--8--8---6---5---------------------
B-6------8-8-8-8-8-8-8-8-8-8-8-----10-10-10---8-------------------------
G-----------------------------------------------------------------------
D-----------------------------------------------------------------------
A-----------------------------------------------------------------------
E-----------------------------------------------------------------------


e-5.---6-5h6p5----------------------------------------------------------
B--------------8---6---5-----5-6---5---8---6-5--------------------------
G------------------------7-----------------------7----------------------
D-----------------------------------------------------------------------
A----------------------------------------------------0------------------
E-----------------------------------------------------------------------


e-5---------------------------------------------------------------------
B-----8-6---5-----------------------------------------------------------
G-------------7---6---7-------------------------------------------------
D---------------------0-------------------------------------------------
A-----------------------------------------------------------------------
E-----------------------------------------------------------------------


Saudade

e-------------------------------5---5-5-5-5-----10-10-10---9-/-12-------
B-------5---6-6-6-6-6-6-6---8-------------------------------------------
G-6-7-------------------------------------------------------------------
D-----------------------------------------------------------------------
A-----------------------------------------------------------------------
E-----------------------------------------------------------------------


e-12-12-10------10-10-10-10\8------8-8-8-8\6------6-6-6-6-6---5---------
B-----------------------------------------------------------------8-----
G-----------------------------------------------------------------------
D-----------------------------------------------------------------------
A-----------------------------------------------------------------------
E-----------------------------------------------------------------------


e-------5---6------8p6p5------6p5--------------5---10-10-10-10-10-10-10-
B-7-8-----------------------------8------7-8----------------------------
G-----------------------------------------------------------------------
D-----------------------------------------------------------------------
A-----------------------------------------------------------------------
E-----------------------------------------------------------------------


e-9---12---12-12---10-10-10-10-10-10-10-10-10------9-9-9---12-----------
B-----------------------------------------------------------------------
G-----------------------------------------------------------------------
D-----------------------------------------------------------------------
A-----------------------------------------------------------------------
E-----------------------------------------------------------------------


e-12-12-12\-6---5h6p5---5-------5---------------------------------------
B---------------------------6-----6-------------------------------------
G-----------------------------------7-----------------------------------
D-----------------------------------------------------------------------
A-----------------------------------------------------------------------
E-----------------------------------------------------------------------


e-------------------------------5---5-5-5---5-----10-10-10-10---5---8---
B-------5---6-6-6-6-6-6-6---8-------------------------------------------
G-6-7-------------------------------------------------------------------
D-----------------------------------------------------------------------
A-----------------------------------------------------------------------
E-----------------------------------------------------------------------


e-8-8---6-6-6-6-6---10-10-10-10-10/12---12---9------9-9-9-9---5---------
B-----------------------------------------------------------------------
G-----------------------------------------------------------------------
D-----------------------------------------------------------------------
A-----------------------------------------------------------------------
E-----------------------------------------------------------------------


e-9---9/12-12---12/17-17------17------6-6-6-6-6-6-6---8p6-5---5-5-5-5---
B-----------------------------------------------------------------------
G-----------------------------------------------------------------------
D-----------------------------------------------------------------------
A-----------------------------------------------------------------------
E-----------------------------------------------------------------------


e-5---5-------8-8-8-8-8---6---5h6p5---5---------------------------------
B-----------------------------------------8---8-8-8-8---6-6-6-6---5-----
G-----------------------------------------------------------------------
D-----------------------------------------------------------------------
A-----------------------------------------------------------------------
E-----------------------------------------------------------------------


e-----------------5---5-------------------------------------------------
B----------6----------6-------------------------------------------------
G-7------7------------7-------------------------------------------------
D-0-------------------0-------------------------------------------------
A-----------------------------------------------------------------------
E-----------------------------------------------------------------------


Bravos

e-6-5h6p5-----------------------------5-5-5-5------0-0-0-0---0----------
B-----------8-6-----------------------5-5-5-5------5-5-5-5--------------
G--------------------7-5--------------6-6-6-6------6-6-6-6-------6---6--
D--------------------------8--------------------------------------------
A------------------------------0----------------------------------------
E-----------------------------------------------------------------------


e-5---6-6-5h6p5-----5---------------------------------------5-----------
B---------------8-------8-8-5-------------------5---6---8-------6-------
G-------------------------------6-------6---7---------------------------
D-----------------------------------0-----------------------------------
A-----------------------------------------------------------------------
E-----------------------------------------------------------------------


e-----6---5h6p5-------------------------5-5-5-5------0-0-0-0---0--------
B---------------8---6-------------------5-5-5-5------5-5-5-5------------
G-----------------------7---5-----------6-6-6-6------6-6-6-6------6---6-
D-0-----------------------------8---------------------------------------
A-----------------------------------0-----------------------------------
E-----------------------------------------------------------------------


e-6--5-----6--5--------5------------------------------------------------
B-------8--------8--6-----8--6--5--8--6--5-----6--5--------5------------
G-------------------------------------------7--------7--5-----7--5------
D-------------------------------------------------------------------8---
A-----------------------------------------------------------------------
E-----------------------------------------------------------------------


e-----5-5-5-5------0-0-0-0---0------------------------------------------
B-----5-5-5-5------5-5-5-5----------------------------------------------
G-----6-6-6-6------6-6-6-6-------6---6----------------------------------
D-----------------------------------------------------------------------
A-0---------------------------------------------------------------------
E-----------------------------------------------------------------------


e-6--5-----6--5--------5------------------------------------------------
B-------8--------8--6-----8--6--5--8--6--5-----6--5--------5------------
G-------------------------------------------7--------7--5-----7--5------
D-------------------------------------------------------------------8---
A-----------------------------------------------------------------------
E-----------------------------------------------------------------------


e-----5-5-5-5------0-0-0-0---0---------------6--5-----5-----------------
B-----5-5-5-5------5-5-5-5-------------------------8-----8--5-----------
G-----6-6-6-6------6-6-6-6-------6---6-------------------------6--------
D-----------------------------------------------------------------0-----
A-0--------------------------------------0------------------------------
E-----------------------------------------------------------------------


e-10---10-10-10---10-10-10---12---13---13-13-13---10--10---12-12-12-----
B-----------------------------------------------------------------------
G-----------------------------------------------------------------------
D-----------------------------------------------------------------------
A-----------------------------------------------------------------------
E-----------------------------------------------------------------------


e-10---9---5---5-5-0--0------------6--5-----5---------------------------
B----------------------------------------8-----8--5---------------------
G------------------------6--6------------------------6------------------
D-------------------------------------------------------0---------------
A------------------------------0----------------------------------------
E-----------------------------------------------------------------------


e-10---10-10-10---10-10-10---12-12-13---13-13-13---10-10-10---12-12-12--
B-----------------------------------------------------------------------
G-----------------------------------------------------------------------
D-----------------------------------------------------------------------
A-----------------------------------------------------------------------
E-----------------------------------------------------------------------


e-10---9---5---5-5-0--0------------9-9-9---9---10---10---12---12--------
B-----------------------------------------------------------------------
G------------------------6--6-------------------------------------------
D-----------------------------------------------------------------------
A------------------------------0----------------------------------------
E-----------------------------------------------------------------------


e-13-13-13-13-10---10---13-13-13-13-12---12---15-15-15-15-13-13-13-13---
B-----------------------------------------------------------------------
G-----------------------------------------------------------------------
D-----------------------------------------------------------------------
A-----------------------------------------------------------------------
E-----------------------------------------------------------------------


e-12-12-12-12-10-10-10-10-9---5---5-5-0--0------------------------------
B-----------------------------------------------------------------------
G-------------------------------------------6--6------------------------
D-----------------------------------------------------------------------
A-------------------------------------------------0---------------------
E-----------------------------------------------------------------------


e-9-9-9---9---10---10---12---12---13-13-13-13-10---10---13-13-13-13-----
B-----------------------------------------------------------------------
G-----------------------------------------------------------------------
D-----------------------------------------------------------------------
A-----------------------------------------------------------------------
E-----------------------------------------------------------------------


e-12---12---15-15-15-15-13-13-13-13-12-12-12-12-10-10-10-10-9-----------
B-----------------------------------------------------------------------
G-----------------------------------------------------------------------
D-----------------------------------------------------------------------
A-----------------------------------------------------------------------
E-----------------------------------------------------------------------


e-5---5-5-0--0------------6---5h6p5-----5-------------------------------
B-----------------------------------8-------8---5-----------------------
G---------------6--6--------------------------------6---7---------------
D-------------------------------------------------------0---------------
A---------------------0-------------------------------------------------
E-----------------------------------------------------------------------


Doce Esperanca

e-----5---10-10-10-11---10-------6-------6-----6-----5-----5------------
B-6----------------------------------8-----8-----8-----6-----6----------
G----------------------------0---------------7-----7-----7-----7--------
D-----------------------------------------------------------------------
A-----------------------------------------------------------------------
E-----------------------------------------------------------------------


e-5-----5---------6---5h6p5---------------------------5---6---5h6p5-----
B---5-----5-------------------8---6---5-----------6---------------------
G-----6-----6-----------------------------7---7-------------------------
D-------------0---------------------------0-----------------------------
A-----------------------------------------------------------------------
E-----------------------------------------------------------------------


e-0---5-----------------------5---0-------6-----------------------5.--5-
B---------8---5---5-5-----------------8-------5-------6---5-------6.--6-
G---------------------6-------------------------------------------7.--7-
D-------------------------------------------------0-----------0---------
A-0-----------------------0---------------------------------------------
E-----------------------------------------------------------------------


e-------------5---6---5h6p5-------5-----------------------------------6-
B-----6---8---------------------------8---5---5---------------5---8-----
G-7-----------------------------------------------6-------6-------------
D-----------------------------------------------------------------------
A-----------------------------0-----------------------0-----------------
E-----------------------------------------------------------------------


e---------------------5.---5-----------5---10-10-10-11-11-11-10-10------
B-5-------6---5-------6.---6-------6------------------------------------
G---------------------7.---7---7----------------------------------------
D-----0-----------0-----------------------------------------------------
A-----------------------------------------------------------------------
E-----------------------------------------------------------------------


e-----6-------6---5-----------------------------------------------------
B---------8-----------8---6-------6---5-------5-------------------------
G-0---------------------------7-----------6-----------------------------
D-----------------------------------------------------------------------
A-----------------------------------------------------------------------
E-----------------------------------------------------------------------


e-----6---5-----------------------5---10-10-10-11-11-11-10-10-----------
B-------------8---6---5-------6-----------------------------------------
G-------------------------7---------------------------------------------
D-0---------------------------------------------------------------------
A-----------------------------------------------------------------------
E-----------------------------------------------------------------------


e-----6-------6---5-----------------------------------------------------
B---------8-----------8---6-------6---5-------5-------------------------
G-0---------------------------7-----------6-----------------------------
D-----------------------------------------------------------------------
A-----------------------------------------------------------------------
E-----------------------------------------------------------------------


e-----6---5-------------------------------------------------------------
B-------------8---7---5-------------------------------------------------
G-----------------------------------------------------------------------
D-0---------------------------------------------------------------------
A-----------------------------------------------------------------------
E-----------------------------------------------------------------------


Tirana

e-----------5-------------------------5---------------------------------
B-----7-7-7-----8-----------7-7-7-7--------8-------------------5---6---8
G-------------------6---7---------------------6---7---7-7-7-7-----------
D-0---------------------0-------------------------0---------------------
A-----------------------------------------------------------------------
E-----------------------------------------------------------------------


e-5---5---10---10-10-10-10-10---9-9---7---7-7-7-7-7---5-----------------
B---------------------------------------------------------8---7---8-----
G-----------------------------------------------------------------------
D-----------------------------------------------------------------------
A-----------------------------------------------------------------------
E-----------------------------------------------------------------------


e-7-7-7-7---7-7-7-7--------------7-----------5---7-7-7-7-7--------------
B-8-8-8-8---8-8-8-8---7---8------8-------8------------------------------
G-7-7-7-7---7-7-7-7------------------7----------------------------------
D-----------------------------------------------------------------------
A-----------------------------------------------------------------------
E-----------------------------------------------------------------------


e-8-8-8-8-8-8-8-8-8---7---10---10-10-10-10-10.---5-5-5-5.---------------
B-----------------------------------------------------------7-----------
G-----------------------------------------------------------7-----------
D-----------------------------------------------------------------------
A-----------------------------------------------------------------------
E-----------------------------------------------------------------------


e-5-5-5-5-5-----------5---10---9-9-9-9---7-7-7-7---5---7---7-7-7-7---5--
B-----------------7-----------------------------------------------------
G-------------7---------------------------------------------------------
D-----------------------------------------------------------------------
A-----------------------------------------------------------------------
E-----------------------------------------------------------------------


e---------5---5-5-5-5---7---9---10---12---12-12-12-12---9---10---7---9--
B-8---7-----------------------------------------------------------------
G-----------------------------------------------------------------------
D-----------------------------------------------------------------------
A-----------------------------------------------------------------------
E-----------------------------------------------------------------------


e-9-9-9-9-9---5---7-------5---7-7-5h7p5---------------------------------
B---------------------8-----------------8---5---------------------------
G-----------------------------------------------6---7-------------------
D-----------------------------------------------------------------------
A-----------------------------------------------------------------------
E-----------------------------------------------------------------------

Lira

e-----7---7---5---------------------7-------5-5-5-5---------------------
B-7---------------8---7---------8---------------------------------------
G-----------------------------------------------------------------------
D-----------------------------------------------------------------------
A-----------------------------------------------------------------------
E-----------------------------------------------------------------------


e-8p7p5--------------5-----------5---8-8-8-8-8-8-8-8-8-8-8-8-8---7---5--
B---------8---7------7-------7---7--------------------------------------
G------------------------7-------7--------------------------------------
D-----------------------------------------------------------------------
A-----------------------------------------------------------------------
E-----------------------------------------------------------------------


e-5-----------------------5---8------7-7-7-7---8p7p5--------------------
B-----8-8-8-8-8-8-8-8-8--------------------------------7/8-8------------
G-----------------------------------------------------------------------
D-----------------------------------------------------------------------
A-----------------------------------------------------------------------
E-----------------------------------------------------------------------


e-7-----------7---10-10-10-10-10-10-10-10-10-10-10-10-10---8---7-7-7-7-7
B-8-------8-------------------------------------------------------------
G-----7-----------------------------------------------------------------
D-----------------------------------------------------------------------
A-----------------------------------------------------------------------
E-----------------------------------------------------------------------


e-8-8-8-8-8-8-8-8-8---10-/-12---12-12-12-12-12-12-12-12-12-12-12-12-----
B-----------------------------------------------------------------------
G-----------------------------------------------------------------------
D-----------------------------------------------------------------------
A-----------------------------------------------------------------------
E-----------------------------------------------------------------------


e-10-10---8-8-----------------------------------------------------------
B-----------------------------------------------------------------------
G-----------------------------------------------------------------------
D-----------------------------------------------------------------------
A-----------------------------------------------------------------------
E-----------------------------------------------------------------------


e-7---7-7---10-10-10-10-10-10-10---7-7---5-5-5-5-5---8-8-8-8-8----------
B----------------------------------------------------------------7---8--
G-----------------------------------------------------------------------
D-----------------------------------------------------------------------
A-----------------------------------------------------------------------
E-----------------------------------------------------------------------


e-7-----------7---7-------7---------------------------------------------
B-8-------8-------8-------8-------8-------------------------------------
G-----7-----------7-----------7-----------------------------------------
D-----------------------------------------------------------------------
A-----------------------------------------------------------------------
E-----------------------------------------------------------------------

San Macaio

e-------7--10---10-10-8---7---------------------------------------------
B----8------------------------10---8---7-----------------------7---8----
G-7----------------------------------------9---7---6---7---9------------
D-----------------------------------------------------------------------
A-----------------------------------------------------------------------
E-----------------------------------------------------------------------


e------8---7---------------7-------10---7-------7-7-7-------------------
B-10---------------8-----------8------------8---8-8-8-------8-------8---
G--------------0-------0--------------------------------7-------7-------
D-----------------------------------------------------------------------
A-----------------------------------------------------------------------
E-----------------------------------------------------------------------


e-7---10---10-10-8---7------------------------------------------------8-
B------------------------10---8---7-----------------------7---8---10----
G-------------------------------------9---7---6---7---9-----------------
D-----------------------------------------------------------------------
A-----------------------------------------------------------------------
E-----------------------------------------------------------------------


e-7-----------7-7-7-------10---7-------10---8---7-----------------------
B-----8-8-8-----------8-8----------8----------------10---8---7----------
G----------------------------------------------------------------9---7--
D-----------------------------------------------------------------------
A-----------------------------------------------------------------------
E-----------------------------------------------------------------------


e--------------------------7---8---10---7---8--------7------------------
B-------------7---8---10------------------------10-------8---10---8-----
G-6---7---9-------------------------------------------------------------
D-----------------------------------------------------------------------
A-----------------------------------------------------------------------
E-----------------------------------------------------------------------


e-7-7-7---7-7-10---8---7---10-------10---8---7--------------------------
B-8-8-8-------------------------8----------------10---8---7-------------
G-------------------------------------------------------------9---7-----
D-----------------------------------------------------------------------
A-----------------------------------------------------------------------
E-----------------------------------------------------------------------


e--------------------------7---8---10---7---8--------7------------------
B-------------7---8---10------------------------10-------8---10---8-----
G-6---7---9-------------------------------------------------------------
D-----------------------------------------------------------------------
A-----------------------------------------------------------------------
E-----------------------------------------------------------------------


e-7-7-7---7-7-10---8---7------------7-7-7-7\-5/10-10-10-10-10-10-10-10--
B-8-8-8---8-8--------------8--------8-8-8-8\----------------------------
G-----------------------------------------------------------------------
D-----------------------------------------------------------------------
A-----------------------------------------------------------------------
E-----------------------------------------------------------------------

Suspiros

e-9---7---9---7---5---5---5-------------------5---7---9---10---9---7----
B-----------------------------8---8-8-8-8-8-----------------------------
G-----------------------------------------------------------------------
D-----------------------------------------------------------------------
A-----------------------------------------------------------------------
E-----------------------------------------------------------------------


e-5---5-5-5-5-----------5-------5---10---10---12---10---9------9-9-9-9-9
B---------------7---7---------------------------------------------------
G-----------------------------------------------------------------------
D---------------------------0-------------------------------------------
A-----------------------------------------------------------------------
E-----------------------------------------------------------------------


e-5-5-5-5-5-5---9---7---5-------------------5.---5-------5.---5---------
B---------------------------8---7---5-------7.---7---7---7.---7---------
G---------------------------------------7---7.---7---7---7.---7---------
D---------------------------------------0------------0------------------
A-----------------------------------------------------------------------
E-----------------------------------------------------------------------


e-10---10---9---7---9---10---7---5-5-5-5-5------------------------------
B--------------------------------------------8---8-8-8-8-8--------------
G-----------------------------------------------------------------------
D-0---------------------------------------------------------------------
A-----------------------------------------------------------------------
E-----------------------------------------------------------------------


e-5---7---9---10---9---7---7-\-5-5-5-5-----------5---5---5---10---10----
B----------------------------------------7---7-------7---7--------------
G-----------------------------------------------------------------------
D-----------------------------------------------------------------------
A-----------------------------------------------------------------------
E-----------------------------------------------------------------------


e-12-12-10---9-9-9-9-9-9-------5---5---9---7---5-----------------------5
B--------------------------------------------------8---7---5-------7----
G--------------------------------------------------------------7--------
D-----------------------------------------------------------------------
A-----------------------------------------------------------------------
E-----------------------------------------------------------------------

Sapateia

e-10---10-10-10-10-10---10---10---10------------------------------------
B-7-----7--7--7--7--7----7----7----7------------------------------------
G-7-----7--7--7--7--7----7----7----7------------------------------------
D-0-----0--0--0--0--0----0----0----0------------------------------------
A-----------------------------------------------------------------------
E-----------------------------------------------------------------------


e-----9-9-9-9-9-------9-/-12-12-------7-7-7-7-7------------7------------
B-----------------------------------------------------10----------------
G-----------------------------------------------------------------------
D-----------------------------------------------------------------------
A-0---------------0-----------------------------------------------------
E---------------------------------0---------------0---------------------


e-10---9-------------7---9---10---10-10-10-10---10---10-10-10-10---10---
B----------10---10------------------------------------------------------
G-----------------------------------------------------------------------
D----------------------------0------------------0------------------0----
A-0---------------------------------------------------------------------
E-----------------------------------------------------------------------


e-9-9-9-9-------12-12-12-12-12-------7-7-7-7-7------------7-------------
B----------------------------------------------------10-----------------
G-----------------------------------------------------------------------
D-----------------------------------------------------------------------
A-----------0-----------------------------------------------------------
E--------------------------------0---------------0----------------------


e-10---9-------------7---9---10---10-10-10-10---10---10-10-10-10---10---
B----------10---10------------------------------------------------------
G-----------------------------------------------------------------------
D----------------------------0------------------0------------------0----
A-0---------------------------------------------------------------------
E-----------------------------------------------------------------------


e-9-9-9-9-------12-12-12-12-12---12-\-9---7-------7-7-7-7---------------
B---------------------------------------------9-------------10---10---10
G-----------------------------------------------------------------------
D-----------------------------------------------------------------------
A-----------------------------------------------------------------------
E-----------0--------------------0--------------------------------------


e-10---10-10-10-10---10---10-10-10-10---10---9-9-9-9---12-12-12-12-12---
B-----------------------------------------------------------------------
G-----------------------------------------------------------------------
D-0------------------0--------------------------------------------------
A---------------------------------------0-------------------------------
E-----------------------------------------------------------------------


e-12-\-9---7-------7---7-----------9-.---8.---9-------------------------
B--------------9--------------10---10.---9.---10------------------------
G----------------------------------9-.---8.---9-------------------------
D---------------------------------------------x-------------------------
A---------------------------------------------0-------------------------
E-0---------------------------------------------------------------------