20130510

TICO TICO GUITAR TAB (WITH A FENDER STRATOCASTER)

Tico Tico is a traditional brazilian song. Paco de Lucia made it famous and now
Luis Moreno plays the main melody on a Fender Stratocaster. The tab link in the videos description did not work but here you can see a new TAB below.



TICO TICO TAB

PDF >>

Part 1

e---------------------------------------------------10-7----------------
B---------------10.-----------------9.-------------------9--------------
G-9-8-9-10-9.---------9-8-9-10-9.--------9-8-9-10-9--------9-7----------
D--------------------------------------------------------------11-10.---
A-----------------------------------------------------------------------
E-----------------------------------------------------------------------


e-----------------10.---8---------------8.---8----------------10-8-7----
B-10-9-8----10.-----------10------10.----------12-10-12-----7--------10-
G--------10------------------10-9-------------------------8-------------
D-------------------------------------------------------9---------------
A-----------------------------------------------------------------------
E-----------------------------------------------------------------------



e---------7.------------------------------------------------------------
B-9-10.-----------------------------------------------------------------
G-----------------------------------------------------------------------
D-----------------------------------------------------------------------
A-----------------------------------------------------------------------
E-----------------------------------------------------------------------


e---------------------------------------------------10-7----------------
B---------------10.-----------------9.-------------------9--------------
G-9-8-9-10-9.---------9-8-9-10-9.--------9-8-9-10-9--------9-7----------
D--------------------------------------------------------------11-10.---
A-----------------------------------------------------------------------
E-----------------------------------------------------------------------


e-----------------10.---8---------------8.---8-------7-----7------------
B-10-9-8----10.-----------10------10.----------12-10-----9--------------
G--------10------------------10-9----------------------9----------------
D-----------------------------------------------------------------------
A-----------------------------------------------------------------------
E-----------------------------------------------------------------------


e-12-10-8---------------------------------------------------------------
B---------12-10.--------------------------------------------------------
G-----------------------------------------------------------------------
D-----------------------------------------------------------------------
A-----------------------------------------------------------------------
E-----------------------------------------------------------------------


Part 2

e-7---------------------------------------------------------------------
B---10-9-8------8------8-9-10.------------------------------------------
G-------------9------9-----------10-------------------------------------
D----------10-----10----------------------------------------------------
A-----------------------------------------------------------------------
E-----------------------------------------------------------------------


e-7---------------------------------------------------------------------
B---10-9-8--------------------------------------------------------------
G---------------12------10-12-14.---9-----------------------------------
D----------9-12----9-12-------------------------------------------------
A-----------------------------------------------------------------------
E-----------------------------------------------------------------------


e-----------------------------------------------------------------------
B-13-13-13-13p12-12-12--12-10-10-10-10.---------------------------------
G----------------------------------------10-10.-------------------------
D-----------------------------------------------------------------------
A-----------------------------------------------------------------------
E-----------------------------------------------------------------------


e-----------------------------------------------------------------------
B-12-12-12-12p8-8-12-10p8----10-8---------------------------------------
G-------------------------10--------------------------------------------
D-----------------------------------------------------------------------
A-----------------------------------------------------------------------
E-----------------------------------------------------------------------


e-7---------------------------------------------------------------------
B---10-9-8------8------8-9-10.------------------------------------------
G-------------9------9-----------10-------------------------------------
D----------10-----10----------------------------------------------------
A-----------------------------------------------------------------------
E-----------------------------------------------------------------------


e-7---------------------------------------------------------------------
B---10-9-8--------------------------------------------------------------
G---------------12------10-12-14.---9-----------------------------------
D----------9-12----9-12-------------------------------------------------
A-----------------------------------------------------------------------
E-----------------------------------------------------------------------


e----------------------10-----------12-------12-15-14-13-12-------------
B-13-12-11-10----10-12----13-12-13--------13----------------------------
G-------------13-----------------------12-------------------------------
D-----------------------------------------------------------------------
A-----------------------------------------------------------------------
E-----------------------------------------------------------------------


e-10--------------------------------------------------------------------
B----13-12--------------------------------------------------------------
G----------14-12-10-----------------------------------------------------
D-------------------14-12-10.-------------------------------------------
A-----------------------------------------------------------------------
E-----------------------------------------------------------------------


Part 3

e-----------------------------------------------------------------------
B-------10-----9.-------------------------------------------------------
G---6-9------6--------6-11-11---6-9.-----6-11-11---6-9.-----------------
D-7--------7--------7---------7--------7---------7----------------------
A-----------------------------------------------------------------------
E-----------------------------------------------------------------------


e-----------------------------------------------------------------------
B-----------------------------------------------------------------------
G---6-11-11---7-9.------------------------------------------------------
D-7---------9-----------------------------------------------------------
A-----------------------------------------------------------------------
E-----------------------------------------------------------------------


e-----------------------------------------------------------------------
B-----------------------------------------------------------------------
G----9-11-14----9-13.------9-11-11-------9.-----------------------------
D-11---------11---------11------------11--------------------------------
A----------------------------------12-----------------------------------
E-----------------------------------------------------------------------


e-----------------------------------------------------------------------
B-----------------------------------------------------------------------
G----9-11-14----9-13.------9-11-11-------9.-----------------------------
D-11---------11---------11------------11--------------------------------
A----------------------------------12-----------------------------------
E-----------------------------------------------------------------------


e-----------------------------------------------------------------------
B-------10-----9.-------------------------------------------------------
G---6-9------6--------6-11-11---6-9.-----6-9-11-9------11-9-------------
D-7--------7--------7---------7--------7----------11-8------11-8--------
A-----------------------------------------------------------------------
E-----------------------------------------------------------------------


e-----------------------------------------------------------------------
B-----------------------------------------------------------------------
G----------7.-----------------------------------------------------------
D-9-8-9-11--------------------------------------------------------------
A-----------------------------------------------------------------------
E-----------------------------------------------------------------------


e-------------------------------11-12-14-12-10--------------------------
B----------------------12-14-15----------------14-----------------------
G-------------11-13-14--------------------------------------------------
D-12-11-12-14-----------------------------------------------------------
A-----------------------------------------------------------------------
E-----------------------------------------------------------------------


e-----------------------------------------------------------------------
B-12-10-9---------------------------------------------------------------
G---------11-9----------------------------------------------------------
D--------------12-11-9--------------------------------------------------
A----------------------12.----------------------------------------------
E-----------------------------------------------------------------------


The end

e---------------------------------------------------10-7----------------
B---------------10.-----------------9.-------------------9--------------
G-9-8-9-10-9.---------9-8-9-10-9.--------9-8-9-10-9--------9-7----------
D--------------------------------------------------------------11-10.---
A-----------------------------------------------------------------------
E-----------------------------------------------------------------------


e-----------------10.---8---------------8.---8----------------10-8-7----
B-10-9-8----10.-----------10------10.----------12-10-12-----7--------10-
G--------10------------------10-9-------------------------8-------------
D-------------------------------------------------------9---------------
A-----------------------------------------------------------------------
E-----------------------------------------------------------------------


e---------7.------------------------------------------------------------
B-9-10.-----------------------------------------------------------------
G-----------------------------------------------------------------------
D-----------------------------------------------------------------------
A-----------------------------------------------------------------------
E-----------------------------------------------------------------------


e---------------------------------------------------10-7----------------
B---------------10.-----------------9.-------------------9--------------
G-9-8-9-10-9.---------9-8-9-10-9.--------9-8-9-10-9--------9-7----------
D--------------------------------------------------------------11-10.---
A-----------------------------------------------------------------------
E-----------------------------------------------------------------------


e-----------------10.---8---------------8.---8-------7-----7------------
B-10-9-8----10.-----------10------10.----------12-10-----9--------------
G--------10------------------10-9----------------------9----------------
D-----------------------------------------------------------------------
A-----------------------------------------------------------------------
E-----------------------------------------------------------------------


e-12-10----16-17---\----------------------------------------------------
B-------13--------------------------------------------------------------
G-----------------------------------------------------------------------
D-----------------------------------------------------------------------
A-----------------------------------------------------------------------
E-----------------------------------------------------------------------