20130610

BIG TOM AND THE MIGHTY MAINLINERS HORNPIPES TAB


Big Tom and the Mighty Mainliners play Hornpipes in a bar.
There is a cool guitar solo at the beginning and in the second half of the song.
TAB under the video.



HORNPIPES TAB

PDF >>

e---------------------------------0h3p0---0-----------------------------
B-3---0-0---------------0---0h3---------3-------------------------------
G---------2---2-------2---2---------------------------------------------
D-----------4---0---4---------------------------------------------------
A-----------------------------------------------------------------------
E-----------------------------------------------------------------------


e-2---5-5---2-0---3-2h3p2-0-----2-0-------------------------------------
B---------------------------3---------3-0-------------------------------
G-----------------------------------------------------------------------
D-----------------------------------------------------------------------
A-----------------------------------------------------------------------
E-----------------------------------------------------------------------



e---------------------------------0h3p0---0-----------------------------
B-3---0-0---------------0---0h3---------3-------------------------------
G---------2---2-------2---2---------------------------------------------
D-----------4---0---4---------------------------------------------------
A-----------------------------------------------------------------------
E-----------------------------------------------------------------------


e-2---5-5---2-0---3-2h3p2-0---------------------------------------------
B---------------------------3.---3---3.---------------------------------
G-----------------------------------------------------------------------
D-----------------------------------------------------------------------
A-----------------------------------------------------------------------
E-----------------------------------------------------------------------


e---------------------------------0h3p0---0-----------------------------
B-3---0-0---------------0---0h3---------3-------------------------------
G---------2---2-------2---2---------------------------------------------
D-----------4---0---4---------------------------------------------------
A-----------------------------------------------------------------------
E-----------------------------------------------------------------------


e-2---5-5---2-0---3-2h3p2-0-----2-0-------------------------------------
B---------------------------3---------3-0---2---------------------------
G-----------------------------------------------------------------------
D-----------------------------------------------------------------------
A-----------------------------------------------------------------------
E-----------------------------------------------------------------------


e---------------------------------0h3p0---0-----------------------------
B-3---0-0---------------0---0h3---------3-------------------------------
G---------2---2-------2---2---------------------------------------------
D-----------4---0---4---------------------------------------------------
A-----------------------------------------------------------------------
E-----------------------------------------------------------------------


e-2---5-5---2-0---3-2h3p2-0----------2----------------------------------
B---------------------------3.---3---3----------------------------------
G--------------------------------2--------------------------------------
D-----------------------------------------------------------------------
A-----------------------------------------------------------------------
E-----------------------------------------------------------------------


e-2/5-5-5---2-----2-2/5---5---2-3---2-3---5-5/7---5---3-----------------
B-------------3---------------------------------------------------------
G-----------------------------------------------------------------------
D-----------------------------------------------------------------------
A-----------------------------------------------------------------------
E-----------------------------------------------------------------------


e-2---5-5---2-0---3-2h3p2-0-----2-0-------------------------------------
B---------------------------3---------3-0---2---------------------------
G-----------------------------------------------------------------------
D-----------------------------------------------------------------------
A-----------------------------------------------------------------------
E-----------------------------------------------------------------------


e---------------------------------0h3p0---0-----------------------------
B-3---0-0---------------0---0h3---------3-------------------------------
G---------2---2-------2---2---------------------------------------------
D-----------4---0---4---------------------------------------------------
A-----------------------------------------------------------------------
E-----------------------------------------------------------------------


e-2---5-5---2-0---3-2h3p2-0---------------------------------------------
B---------------------------3.---3.---3.--------------------------------
G---------------------------2.---2.---2.--------------------------------
D-----------------------------------------------------------------------
A-----------------------------------------------------------------------
E-----------------------------------------------------------------------


e-2/5-5-5---2-----2-2/5---5---2-3---2-3---5-5/7---5---3-----------------
B-------------3---------------------------------------------------------
G-----------------------------------------------------------------------
D-----------------------------------------------------------------------
A-----------------------------------------------------------------------
E-----------------------------------------------------------------------


e-2---5-5---2-0---3-2h3p2-0-----2-0-------------------------------------
B---------------------------3---------3-0---2---------------------------
G-----------------------------------------------------------------------
D-----------------------------------------------------------------------
A-----------------------------------------------------------------------
E-----------------------------------------------------------------------


e---------------------------------0h3p0---0-----------------------------
B-3---0-0---------------0---0h3---------3-------------------------------
G---------2---2-------2---2---------------------------------------------
D-----------4---0---4---------------------------------------------------
A-----------------------------------------------------------------------
E-----------------------------------------------------------------------


e-2---5-5---2-0---3-2h3p2-0-----------2---------------------------------
B---------------------------3.---3.---3---------------------------------
G---------------------------2.---2.---2---------------------------------
D-----------------------------------------------------------------------
A-----------------------------------------------------------------------
E-----------------------------------------------------------------------


2nd part (by 1:20)

e-----------------------------0---3-0h3p0-----0-------------------------
B---------------------------3-------------3-----------------------------
G-0---2-4---0-2---0-----0-----------------------------------------------
D-------------------2-/-------------------------------------------------
A-----------------------------------------------------------------------
E-----------------------------------------------------------------------


e-3---2-3---3-0---------------------------------------------------------
B-----------------3-0---------0-1---------------------------------------
G-----------------------0-2---------2-----------------------------------
D-------------------------------------2-----0---------------------------
A-----------------------------------------------------------------------
E-----------------------------------------------------------------------


e-------------------------------0---3-0h3p0-----0-----------------------
B-----------------------------3-------------3---------------------------
G-0---2-4---0-2h4p0-------0---------------------------------------------
D-------------------2---0-----------------------------------------------
A-----------------------------------------------------------------------
E-----------------------------------------------------------------------


e-3---2-3---3-0---------------------------------------------------------
B-----------------3-0---------------------------------------------------
G---------------------------2---0-------0-------------------------------
D---------------------------------2---0-------2h3h4---------------------
A-----------------------------------------------------------------------
E-----------------------------------------------------------------------


e-------------------------------0---3-0h3p0-----------------------------
B-------0---0-----------------3-------------3---0-----------------------
G-0---2-------2---0-------0---------------------------------------------
D-------------------2h3h4-----------------------------------------------
A-----------------------------------------------------------------------
E-----------------------------------------------------------------------


e-3---2-3---3-0---------------------------------------------------------
B-----------------3-0-----------0---------------------------------------
G---------------------------2-----0h2p0---------------------------------
D---------------------------------------2-----2h3h4---------------------
A-----------------------------------------------------------------------
E-----------------------------------------------------------------------


e-------------------------------0---3-0h3p0-----------------------------
B-------0---------------------3-------------3---0-----------------------
G-0---2-----0-2---0-------0---------------------------------------------
D-------------------2h3h4-----------------------------------------------
A-----------------------------------------------------------------------
E-----------------------------------------------------------------------


e-3---2-3---3-0---------------------------------------------------------
B-----------------3-0---------------------------------------------------
G---------------------------2---0-------0-------------------------------
D---------------------------------2---0---------------------------------
A-----------------------------------------------------------------------
E-----------------------------------------------------------------------


e-3---2-0---3-2h3-0-----2-0---0-0---2-0---------------------------------
B-------------------3---------------------3-0---------------------------
G-----------------------------------------------------------------------
D-----------------------------------------------------------------------
A-----------------------------------------------------------------------
E-----------------------------------------------------------------------


e-3---2-3---3-0---------------------------------------------------------
B-----------------3-0---------0-----------------------------------------
G-------------------------2-----0h2-0-----------------------------------
D-------------------------------------2-----2h3h4-----------------------
A-----------------------------------------------------------------------
E-----------------------------------------------------------------------


e-------------------------------0---3-0h3p0-----------------------------
B-------0---0-----------------3-------------3---0-----------------------
G-0---2-------0h2p0-------0---------------------------------------------
D-------------------2h3h4-----------------------------------------------
A-----------------------------------------------------------------------
E-----------------------------------------------------------------------


e-3---2-3---3-0---------------------------------------------------------
B-----------------3-0---------------------------------------------------
G---------------------------2---0-------0---0---------------------------
D---------------------------------2---0---------------------------------
A-----------------------------------------------------------------------
E-----------------------------------------------------------------------


e-3---2-0---3-2h3-0-----2-0---0-0---2-0---------------------------------
B-------------------3---------------------3-0---------------------------
G-----------------------------------------------------------------------
D-----------------------------------------------------------------------
A-----------------------------------------------------------------------
E-----------------------------------------------------------------------


e-3---2-3---3-0---------------------------------------------------------
B-----------------3-0---------0-----------------------------------------
G-------------------------2-----0h2-0-----------------------------------
D-------------------------------------2-----2h3h4-----------------------
A-----------------------------------------------------------------------
E-----------------------------------------------------------------------


e-------------------------------0---3-0h3p0-----------------------------
B-------0---------------------3-------------3---0-----------------------
G-0---2-----0-2---0-------0---------------------------------------------
D-------------------2h3h4-----------------------------------------------
A-----------------------------------------------------------------------
E-----------------------------------------------------------------------


e-3---2-3---3-0-------------------------3-------------------------------
B-----------------3-0-------------------0-------------------------------
G---------------------------2---0-------0-------------------------------
D---------------------------------2---0-0-------------------------------
A---------------------------------------2-------------------------------
E---------------------------------------3-------------------------------