20130615

CARLOS SANTANA EL FAROL TAB AND GUITAR LESSON


Short guitar lesson how to play Carlos Santana - El Farol. (Supernatural album version)
However in the video only the main parts of the song are shown, the TAB covers the complete album version.



CARLOS SANTANA EL FAROL TAB

PDF >>

Part 1

e-----------------------------------------------------------------------
B-13~------------------------13-12~-------------------------------------
G-----------------------------------------------------------------------
D-------------14-15~------------------------12h14~----------------------
A-----------------------------------------------------------------------
E-----------------------------------------------------------------------


e-----------------------------------------------------------------------
B-----------------------------------------------------------------------
G-14~------------------------------------14--13~------------------------
D--------------------------------12--15------------15-12h14---12h14p12--
A-------------15-17~---------14-----------------------------------------
E-----------------------------------------------------------------------



e-----------------------------------------------------------------------
B-----------------------------------------------------------------------
G-----------------------------------------------------------------------
D-----12-14-12-14~------------------------------------------------------
A-15--------------------------------------------------------------------
E-----------------------------------------------------------------------


Part 2

e-----------------------------------------------------------------------
B-13~---------------------------13-12~----------------------------------
G--------------------------------------------------12.------------------
D-------------14-15~---------15---------------12.-------12h14~---14-14~-
A-----------------------------------------------------------------------
E-----------------------------------------------------------------------


e-----------------------------------------------------------------------
B-----------------------------------------------------------------------
G-14~------------------------------------14--13h14p13-------------------
D----------------12~-------------12--15-----------------15-12h14---12---
A-------------15-------------14-----------------------------------------
E-----------------------------------------------------------------------


e-----------------------------------------------------------------------
B-----------------------------------------------------------------------
G-----------------------------------------------------------------------
D-----12-14-12-14~------------------------------------------------------
A-15--------------------------------------------------------------------
E-----------------------------------------------------------------------


Part 3

e-----------------------------------------------------------------------
B-----------------------------------------------------------------------
G-----------------------------10.---10/12-------------------------------
D------14------14--12---12.--------------------14~----------------------
A-12-------12-----------------------------------------------------------
E-----------------------------------------------------------------------


e-----------------------------------------------------------------------
B-----------------------------------------------------------------------
G-----------------------------------------------------------------------
D----------12--14--12---12.--------------12.----------------------------
A-12---15---------------------12/14-----------15--15~-------------------
E-----------------------------------------------------------------------


e-----------------------------------------------------------------------
B-----------------------------------------------------------------------
G-----------------------------------------------------------------------
D-----14------14--12------14.------15------15/17------14p12-14~---------
A-15------15------------------------------------------------------------
E-----------------------------------------------------------------------


e-----------------------------------------------------------------------
B-----------------------------------------------------------------------
G-----------------------------------------------------------------------
D------10--12--12/14-12-------------------------------------------------
A-12-----------------------14----11-------14-12-----11-12-14------------
E--------------------------------------12-------------------------------


e-----------------------------------------------------------------------
B-----------------------------------------------------------------------
G-----------------------------------------------12----------------------
D--------------------12---------12-14---------------15--14~-------------
A-12-14-15-----14-15---------15-----------------------------------------
E-----------------------------------------------------------------------


Part 4

e-----------------------------------------------------------------------
B-13~------------------------13-12~-------------------------------------
G-----------------------------------------------------------------------
D-------------14-15~------------------------12-14-14~-------------------
A-----------------------------------------------------------------------
E-----------------------------------------------------------------------


e-----------------------------------------------------------------------
B-----------------------------------------------------------------------
G-14~------------------------------------14--13~------------------------
D--------------------------------12--15-----------15--12h14---12--------
A-------------15-17~---------14-----------------------------------------
E-----------------------------------------------------------------------


e-----------------------------------------------------------------------
B-----------------------------------------------------------------------
G-----------------------------------------------------------------------
D-----12-14-12-14~------------------------------------------------------
A-15--------------------------------------------------------------------
E-----------------------------------------------------------------------


Part 5

e-----------------------------------------------------------------------
B-13~---------------------------13-12~----------------------------------
G--------------------------------------------------12.------------------
D-------------14/15~--------------------------12.-------12h14~---14-14~-
A-----------------------------------------------------------------------
E-----------------------------------------------------------------------


e-----------------------------------------------------------------------
B-----------------------------------------------------------------------
G-14~------------------------------------14--13~------------------------
D--------------------------------12--15-----------15--12h14---12--------
A-------------15-17~---------14-----------------------------------------
E-----------------------------------------------------------------------


e-----------------------------------------------------------------------
B-----------------------------------------------------------------------
G-----------------------------------------------------------------------
D----12-14-12-14~-------------------------------------------------------
A-15--------------------------------------------------------------------
E-----------------------------------------------------------------------


Part 6

e-----------------------------------------------------------------------
B-----------------------------------------------------------------------
G-----------------------------10.---10/12-------------------------------
D------14------14--12---12.--------------------14~----------------------
A-12-------12-----------------------------------------------------------
E-----------------------------------------------------------------------


e-----------------------------------------------------------------------
B-----------------------------------------------------------------------
G-----------------------------------------------------------------------
D------10--12/14-12-----------------------------------------------------
A-12-------------------14.----11-------12/14-12-------------------------
E-----------------------------------12----------------------------------


e-----------------------------------------------------------------------
B-----------------------------------------------------------------------
G-----------------------------------------------------------------------
D------14------14--12---14.---15.---15/17~------14-12-14~---------------
A-12-------12-----------------------------------------------------------
E-----------------------------------------------------------------------


e-----------------------------------------------------------------------
B-----------------------------------------------------------------------
G-----------------------------------------------------------------------
D----------12--14--12---------------------------------------------------
A-12---15----------------14.----11-------12/14-12-----------------------
E-------------------------------------12--------------------------------


e-----------------------------------------------------------------------
B-----------------------------------------------------------------------
G---------------------------------12----------------14------------------
D------10--12/14-12--------12-14------15.--14--15.------15--15\14-12-14-
A-12--------------------15----------------------------------------------
E-----------------------------------------------------------------------


e-----------------------------------------------------------------------
B-----------------------------------------------------------------------
G-----------------------------------------------------------------------
D------10--12/14-12-----------------------------------------------------
A-12--------------------14----11-------14-12-----11-12-14---------------
E-----------------------------------12----------------------------------


e-----------------------------------------------------------------------
B-----------------------------------------------------------------------
G-----------------------------------------------12----------------------
D--------------------12---------12-14---------------15--14~-------------
A-12-14-15-----14-15---------15-----------------------------------------
E-----------------------------------------------------------------------


Part 7

e-----------------------------------------------------------------------
B----------12.---13~------------------------13-12~----------------------
G----14.----------------------------------------------------------------
D-14-------------------------14-15~--------------------------12h14-14~--
A-----------------------------------------------------------------------
E-----------------------------------------------------------------------


e-----------------------------------------------------------------------
B-----------------------------------------------------------------------
G-14~------------------------------------14--13h14p13-------------------
D----------------12~-------------12--15-----------------15-12h14---12---
A-------------15-------------14-----------------------------------------
E-----------------------------------------------------------------------


e-----------------------------------------------------------------------
B-----------------------------------------------------------------------
G-----------------------------------------------------------------------
D-----12-14-12-14~------------------------------------------------------
A-15--------------------------------------------------------------------
E-----------------------------------------------------------------------


improvisation ...

e----------------12-13-12-13-15-13-12-13-12-13-12-13----12----12--------
B-------12-13-15-------------------------------------15----15----13-15--
G----14-----------------------------------------------------------------
D-14--------------------------------------------------------------------
A-----------------------------------------------------------------------
E-----------------------------------------------------------------------


e-----------------------------------------------------------------------
B-13p12---13-12-13-15-13-12-13-13p12------------------------------------
G------------------------------------14-12------------------------12-12-
D------------------------------------------12----------12-12h14---------
A---------------------------------------------15-12-15------------------
E-----------------------------------------------------------------------


e--------------------------------------15(17)---15.---15---13-12--------
B-----------------------------------------------------------------------
G-12-14-12h14p12~-------------------------------------------------------
D-----------------------------------------------------------------------
A-----------------------------------------------------------------------
E-----------------------------------------------------------------------


e-13-12----13p12-------12-----------------------------------------------
B-------15-------15-13----15-13-12-15-13-12-15-13-12-13p12----------12--
G----------------------------------------------------------14-13-14-----
D-----------------------------------------------------------------------
A-----------------------------------------------------------------------
E-----------------------------------------------------------------------


e-------12~---\-----------17----17----17----19----19----19----20.-------
B-13-15----------------17----17----17----17----17----17----17-----------
G-----------------------------------------------------------------------
D-----------------------------------------------------------------------
A-----------------------------------------------------------------------
E-----------------------------------------------------------------------


e-20(22)---20(22)---20(22)---20(22)---20(22)---(20)---p17----17h20p17---
B---------------------------------------------------------20----------20
G-----------------------------------------------------------------------
D-----------------------------------------------------------------------
A-----------------------------------------------------------------------
E-----------------------------------------------------------------------


e-17--------------------------------------17----------------------------
B----20p17-----------------------------17----20-17----------------------
G----------19(21)---19-17----17-19(21)-------------19(21)-19-17---------
D-------------------------19------------------------------------19------
A-----------------------------------------------------------------------
E-----------------------------------------------------------------------


e-----------------------------------------------------------------------
B-----------------------------------------------------------------------
G-17-19.-19-17.---17-17~------------------------------------------------
D--------------------------19-17------------------------17~---\---------
A--------------------------------19\17-15----15-17/19-------------------
E-----------------------------------------17----------------------------


e-15(17)---15.---15~-----13-12~---------13---12---12~-------------------
B-----------------------------------------------------------------------
G-----------------------------------------------------------------------
D-----------------------------------------------------------------------
A-----------------------------------------------------------------------
E-----------------------------------------------------------------------


e----------12h13p12-------12--------------------------------------------
B-15-13-15----------15-13----15-13-12-15-13-12-13-12-13-12-13-12-13~----
G-----------------------------------------------------------------------
D-----------------------------------------------------------------------
A-----------------------------------------------------------------------
E-----------------------------------------------------------------------


e-------------------------12~------12-13~---12h13-12--------------------
B-13~---12-13-15~---13-15-------15--------------------13--13--13~-------
G-----------------------------------------------------------------------
D-----------------------------------------------------------------------
A-----------------------------------------------------------------------
E-----------------------------------------------------------------------


e-----------------------------------------------------------------------
B---------------------------------13-12~--------------------------------
G-----------------------------------------------------------------------
D----14h15~--------------------------------------------------12h14~-----
A-----------------------------------------------------------------------
E-----------------------------------------------------------------------


e-----------------------------------------------------------------------
B-----------------------------------------------------------------------
G-14~--------------------------------------14--13h14p13-----------------
D------------------12~-------------12--15-----------------15-12h14---12-
A---------------15-------------14---------------------------------------
E-----------------------------------------------------------------------


e-----------------------------------------------------------------------
B-----------------------------------------------------------------------
G-----------------------------------------------------------------------
D----12-14~------12-14~------12-14~------12-14----12~-------------------
A-15----------15----------15----------15-------15-----------------------
E-----------------------------------------------------------------------


e-----------------------------------------------------------------------
B----------------------------------------------------------12-12-13-15--
G-------------12-------------------------------12-12-14-14--------------
D-14----12-14----15-14-12----12-14----12-14-15--------------------------
A----15-------------------15-------15-----------------------------------
E-----------------------------------------------------------------------


e-12-15-13-12-13-12-13----12----------------12~-------------------------
B----------------------15----15-13-12-13h15-----------------------------
G-----------------------------------------------------------------------
D-----------------------------------------------------------------------
A-----------------------------------------------------------------------
E-----------------------------------------------------------------------


e----17-17---17.---19.---20.-19h20----------20(22)---20(22)---20(22)----
B-17--------------------------------------------------------------------
G-----------------------------------------------------------------------
D-----------------------------------------------------------------------
A-----------------------------------------------------------------------
E-----------------------------------------------------------------------


e-20(22)---20(22)-----20(22)-----20(22)-----20(22)-20(22)---20-17-------
B-----------------------------------------------------------------20-17-
G-----------------------------------------------------------------------
D-----------------------------------------------------------------------
A-----------------------------------------------------------------------
E-----------------------------------------------------------------------


e-----------------------------------------------------------------------
B-------------------------------17-17----------17--------17-17----------
G-19(21)---19-17----17-19(21)---------19(21)------19(21)----------------
D----------------19-----------------------------------------------------
A-----------------------------------------------------------------------
E-----------------------------------------------------------------------


e-----------------------------------------------------------------------
B--------17-17--------17-17---------------------------------------------
G-19(21)-------19(21)-------21(24)------(21)(19)-17.--19.--17.--19-17---
D-----------------------------------------------------------------------
A-----------------------------------------------------------------------
E-----------------------------------------------------------------------


e-----------------------------------------------------------------------
B-20.-18.--17.--18.--18p17-----17------------17-------------------------
G---------------------------19----19.--17-19----19.--17-16h17p16--------
D-----------------------------------------------------------------------
A-----------------------------------------------------------------------
E-----------------------------------------------------------------------


e-----------------------------------------------------------------------
B-15-13-12--13-12-------------------------------------------------------
G-----------------14-12-----------------------12~--12~--12~--12~--12~--\
D-----------------------14-12----------12h14----------------------------
A-----------------------------15-12-15----------------------------------
E-----------------------------------------------------------------------


e-15h17---15---15------13-12---------12h13---12---12--------------------
B----------------------------------------------------------15-15--------
G-----------------------------------------------------------------------
D-----------------------------------------------------------------------
A-----------------------------------------------------------------------
E-----------------------------------------------------------------------


e-------12----------12-13-15-13-12----------12--------------------------
B-13-15----15-13-15----------------15-13-15----15-13-12-13-12-13--------
G-----------------------------------------------------------------------
D-----------------------------------------------------------------------
A-----------------------------------------------------------------------
E-----------------------------------------------------------------------


e-----------------------------------------------------------------------
B-12---12-----------------------12---13---------------------------------
G-----------14---14--------14-------------------------------------------
D---------------------14------------------------------------------------
A-----------------------------------------------------------------------
E-----------------------------------------------------------------------