20130611

CARLOS SANTANA EUROPA TAB AND GUITAR LESSON


Short guitar lesson how to play Europa by Carlos Santana.
This lesson shows only the main parts.
See the TAB of the complete album version under the video.



CARLOS SANTANA EUROPA TAB

PDF >>

Part 1

e------8---10.---10/11---10.-----8--------------------------------------
B-8.-------------------------------11.---8h9~---------------------------
G-----------------------------------------------------------------------
D-----------------------------------------------------------------------
A-----------------------------------------------------------------------
E-----------------------------------------------------------------------


e------8-8h10-8~--------------------------------------------------------
B-9-11-----------------11.----------------------------------------------
G------------------------------10---/12~--------------------------------
D-----------------------------------------------------------------------
A-----------------------------------------------------------------------
E-----------------------------------------------------------------------



e-----------------------------------------------------------------------
B-8---9---11---11/13---11.-----9-8---------------8.---------------------
G----------------------------------8h10~-----------8h10~----------------
D-----------------------------------------------------------------------
A-----------------------------------------------------------------------
E-----------------------------------------------------------------------


e-----------------------------------------------------------------------
B-------8---9.---9/11---9.---8------------------------------------------
G-10.--------------------------10-8~------------------------------------
D-----------------------------------------------------------------------
A-----------------------------------------------------------------------
E-----------------------------------------------------------------------


e-----------------------------------------------------------------------
B--------------------------------8.-------------------------------------
G-10p8---------------------------8.-------------------------------------
D------10p8----------------------10.------------------------------------
A-----------10\8-6-8/10-------------------------------------------------
E-----------------------11-----8----------------------------------------


Part 2

e------8---10.---10/11---10.--------8-----------------------------------
B-8.----------------------------------11-8h9~---------------------------
G-----------------------------------------------------------------------
D-----------------------------------------------------------------------
A-----------------------------------------------------------------------
E-----------------------------------------------------------------------


e------8-8h10-8~--------------------------------------------------------
B-9-11-------------------11.--------------------------------------------
G------------------------------10---/12~--------------------------------
D-----------------------------------------------------------------------
A-----------------------------------------------------------------------
E-----------------------------------------------------------------------


e-----------------------------------------------------------------------
B-8---9---11---11/13---11.-----9-8--------------------------------------
G----------------------------------8h10~---------8h10~------------------
D-----------------------------------------------------------------------
A-----------------------------------------------------------------------
E-----------------------------------------------------------------------


e-----------------------------------------------------------------------
B-------8---9---9h11-----9-8h9p8----------------------------------------
G-10.----------------------------10---/12~------------------------------
D-----------------------------------------------------------------------
A-----------------------------------------------------------------------
E-----------------------------------------------------------------------


Part 3

e-----------------13(15)------13(15)----------------13-11-13---13---/16.
B---------13.-----------------------------------------------------------
G-12.-------------------------------------------------------------------
D-----------------------------------------------------------------------
A-----------------------------------------------------------------------
E-----------------------------------------------------------------------


e-------11-13-13p11-13(15)-----------(15)(13)--11.-13-11---h13.---------
B----11-----------------------------------------------------------------
G-12--------------------------------------------------------------------
D-----------------------------------------------------------------------
A-----------------------------------------------------------------------
E-----------------------------------------------------------------------


e-13(15)---13(15)---13(15)---(15)(13)---11----13p11\10------------------
B------------------------------------------13---------------------------
G-----------------------------------------------------------------------
D-----------------------------------------------------------------------
A-----------------------------------------------------------------------
E-----------------------------------------------------------------------


e-11\10-----------------------------------------------------------------
B-----------------------------------------------------------------------
G-----------12-----10p8p\7.---------------------------------------------
D-----------------------------------------------------------------------
A-----------------------------------------------------------------------
E-----------------------------------------------------------------------


e-11(13)-----(13)(11)p8-------------------------------------------------
B-----------------------11-8------------------8-------------------------
G----------------------------10(12)-(10)-8------8-----------------------
D------------------------------------------10-----10~-------------------
A-----------------------------------------------------------------------
E-----------------------------------------------------------------------


e----------------8--.---------------------------------------------------
B----------------8--.---------------------------------------------------
G----------------8--.---------------------------------------------------
D-8--------------10-.---------------------------------------------------
A---10-\-8p6-----10-.---------------------------------------------------
E------------8-8-8--.---------------------------------------------------


Part 4     (Clean)

e-----------------------------------------------------------------------
B--------------------------------8------------------8-------------------
G-----------7~-------8~-----8h10---------------8h10---------------------
D-10~---------------------------------------8.--------------------------
A-----------------------------------------------------------------------
E-----------------------------------------------------------------------


e-----------------------------------------------------------------------
B----------8--------------------------------7/8---11.-------------------
G-----8h10--------------10~-----8-10---8.-------------------------------
D--8.----------------8.-------------------------------------------------
A-----------------------------------------------------------------------
E-----------------------------------------------------------------------


e---------------------------------------8-------------------------------
B----7/8---11.-----------7/8-11-11p8-11---11---(13)---------------------
G-----------------------------------------------------------------------
D-8.------------------8.------------------------------------------------
A-----------------------------------------------------------------------
E-----------------------------------------------------------------------


e-8---------------------------------------------------------------------
B---11----------------------8.------------------8.----------------------
G------10(12)(10)-8----8h10----------------10---------------------------
D-------------------10-----------------10.------------------------------
A-----------------------------------------------------------------------
E-----------------------------------------------------------------------


e------------------8----------------------------------------------------
B-------------8.-----11-8-----------------------8-----------------------
G----10(12)---------------10(12)---(10)-8----10---8~--------------------
D-10--------------------------------------10----------------------------
A-----------------------------------------------------------------------
E-----------------------------------------------------------------------


e-----------------------------------------------------------------------
B-----------------------------------------------------------------------
G-10p8------------------------------------------------------------------
D------10p8-------------------------------------------------------------
A-----------10\8-6-8/10-6'----------------------------------------------
E------------------------------8.---------------------------------------


Part 5           (Clean)

e-----------------------------------------------------------------------
B---------------------------------8------------------8------------------
G------------7~-------8~-----8h10---------------8h10--------------------
D-/10~---------------------------------------8.-------------------------
A-----------------------------------------------------------------------
E-----------------------------------------------------------------------


e-----------------------------------------------------------------------
B----------8--------------------------------7/8---11.-------------------
G-----8h10--------------10~-----8-10---8.-------------------------------
D--8.----------------8.-------------------------------------------------
A-----------------------------------------------------------------------
E-----------------------------------------------------------------------


e---------------------------------------8-------------------------------
B----7/8---11.-----------7/8-11-11p8-11---11---(13)---------------------
G-----------------------------------------------------------------------
D-8.------------------8.------------------------------------------------
A-----------------------------------------------------------------------
E-----------------------------------------------------------------------


e-8--------------------8------------------------------------------------
B---11-8-------------8---11-8-----------------8.------8-----------------
G--------10---(12)------------10(12)(10)-8-------8h10---10~-------------
D------------------------------------------10---------------------------
A-----------------------------------------------------------------------
E-----------------------------------------------------------------------


e------------8----------------------------------------------------------
B----------8---11-8-----------------------------------------------------
G-10(12)------------10(12)(10)-8----8-10-/-12~--------------------------
D--------------------------------10-------------------------------------
A-----------------------------------------------------------------------
E-----------------------------------------------------------------------


e-----------------------------------------------------------------------
B-----------------------------------------------------------------------
G----------------------12.---12h14-12.---12h14-12.----------------------
D---------10---12/14----------------------------------------------------
A-10/12-----------------------------------------------------------------
E-----------------------------------------------------------------------


Part 6  (distortioned again)

e-------------13(15)---13(15)-------------------------------------------
B-------13.-------------------------------------------------------------
G-12.-------------------------------------------------------------------
D-----------------------------------------------------------------------
A-----------------------------------------------------------------------
E-----------------------------------------------------------------------


e-(15)(13)-11-13---11---13-(15).-13(15)------(13)p11-13-11---h13.-------
B-----------------------------------------------------------------------
G-----------------------------------------------------------------------
D-----------------------------------------------------------------------
A-----------------------------------------------------------------------
E-----------------------------------------------------------------------


e-13(15)------13(15)------------(13)p11-13.-(14)(13)---p11.-13p11p10----
B-----------------------------------------------------------------------
G-----------------------------------------------------------------------
D-----------------------------------------------------------------------
A-----------------------------------------------------------------------
E-----------------------------------------------------------------------


e-h11p10--------11(13)------11-8----------------------------------------
B--------------------------------11-8-----------------8-----------------
G-------------------------------------10(12)(10)-8------8---------------
D--------------------------------------------------10-----10~-----------
A-----------------------------------------------------------------------
E-----------------------------------------------------------------------


Part 7

e-----------------------------------------------------------------------
B--------------------------------------8-8~-----------------------------
G------8-8~-------------------------------------------------------------
D-8-10----------------------------8-10----------------------------------
A-----------------------------------------------------------------------
E-----------------------------------------------------------------------


e-----------------------------------------------------------------------
B-8-11-9~---8-11-9~---8-------------------------------8-8~--------------
G-----------------------10/12---\10-8----10p8---------------------------
D-------------------------------------10------10-8-10-------------------
A-----------------------------------------------------------------------
E-----------------------------------------------------------------------


e---------------11.-------------8---11---10h11p10p8---11---10h11p10p8---
B-8h11/13-13~---------------8.------------------------------------------
G-----------------------------------------------------------------------
D-----------------------------------------------------------------------
A-----------------------------------------------------------------------
E-----------------------------------------------------------------------


e-11---10h11p10p8---11---10h11p10p8---11---10h11p10p8---11---10h11p10p8-
B-----------------------------------------------------------------------
G-----------------------------------------------------------------------
D-----------------------------------------------------------------------
A-----------------------------------------------------------------------
E-----------------------------------------------------------------------


e-11---10h11p10p8---11---10h11p10p8-11(13)------------------(11)p10p8---
B-----------------------------------------------------------------------
G-----------------------------------------------------------------------
D-----------------------------------------------------------------------
A-----------------------------------------------------------------------
E-----------------------------------------------------------------------


e-11p10p8---------------------------------------------------------------
B---------11---9---p8---------------------------------------------------
G---------------------10p8.---------------------------------------------
D-----------------------------------------------------------------------
A-----------------------------------------------------------------------
E-----------------------------------------------------------------------


Part 8

e----11-13(15)---------13(15)--------13(15)---13(15)---13(15)---13(15)--
B-13--------------------------------------------------------------------
G-----------------------------------------------------------------------
D-----------------------------------------------------------------------
A-----------------------------------------------------------------------
E-----------------------------------------------------------------------


e-13(15)-~~~~~~~~~~~~~~~~~~~~~~~~~~~~~~~~~~~~~~~~~~~~~~~~~~~~~~~~~~~~~--
B-----------------------------------------------------------------------
G-----------------------------------------------------------------------
D-----------------------------------------------------------------------
A-----------------------------------------------------------------------
E-----------------------------------------------------------------------


e-13~---11~---11~---11~---11~---11~---11~---11~---11.-------------------
B-------------------------------------------------------13.-13.-11(13)--
G-----------------------------------------------------------------------
D-----------------------------------------------------------------------
A-----------------------------------------------------------------------
E-----------------------------------------------------------------------


e-8---------------------------------------------------------------------
B---11-8------------------------8---------------------------------------
G--------10(12)(10)-8----8---10---8~------------------------------------
D---------------------10------------------10p8-----------------8-10.----
A----------------------------------------------10\8p6---8/10------------
E-----------------------------------------------------------------------


e-----------------------------------------------------------------------
B-----------8~------8~---------11.---9.---8---9-8~----9--p8---------8~--
G----7-8-10------10------10.--------------------------------10-8-10-----
D-10--------------------------------------------------------------------
A-----------------------------------------------------------------------
E-----------------------------------------------------------------------


e-----------------------------------------------------------------------
B-----------8~------8~---------11.---9.---8---9-7/8~----9p8---------8~--
G----7-8-10------10.-----10.--------------------------------10-8-10-----
D-10--------------------------------------------------------------------
A-----------------------------------------------------------------------
E-----------------------------------------------------------------------


e-----------------------------------------------------------------------
B-------------8~------8~---------11.--9.--8---9-7/8~-----9p8---------8~-
G------7-8-10------10------10.-------------------------------10-8-10----
D---10------------------------------------------------------------------
A-10--------------------------------------------------------------------
E-----------------------------------------------------------------------


e-----------------------------------------------------------------------
B-----------8~------8~---------11.---9.---8---9-7/8~--------------------
G----7-8-10------10------10.--------------------------------------------
D-10--------------------------------------------------------------------
A-----------------------------------------------------------------------
E-----------------------------------------------------------------------


Part 9

e---------------11-11~------------------11h13(15)-----------------------
B-8-11/13-13~-------------------------13--------------------------------
G-----------------------------------------------------------------------
D-----------------------------------------------------------------------
A-----------------------------------------------------------------------
E-----------------------------------------------------------------------


e-13(15)------13(15)---13(15)---13(15)----------------------------------
B-----------------------------------------------------------------------
G-----------------------------------------------------------------------
D-----------------------------------------------------------------------
A-----------------------------------------------------------------------
E-----------------------------------------------------------------------


e-(15)(13)-11~---11~---11~---11~---13(15)-----(13)p11-13-11\------------
B-----------------------------------------------------------------------
G-----------------------------------------------------------------------
D-----------------------------------------------------------------------
A-----------------------------------------------------------------------
E-----------------------------------------------------------------------


e-15-18-18p15-18(20)---18(20)------18(20)---------(18)-15-15~-----------
B-----------------------------------------------------------------------
G-----------------------------------------------------------------------
D-----------------------------------------------------------------------
A-----------------------------------------------------------------------
E-----------------------------------------------------------------------


e----------15---18p15----------15---18p15----------15---18p15-----------
B-18(20)--------------18(20)--------------18(20)------------------------
G-----------------------------------------------------------------------
D-----------------------------------------------------------------------
A-----------------------------------------------------------------------
E-----------------------------------------------------------------------


e----------15---18p15----------15-18p15----15-18(20)------18(20)--------
B-18(20)--------------18(20)------------18------------------------------
G-----------------------------------------------------------------------
D-----------------------------------------------------------------------
A-----------------------------------------------------------------------
E-----------------------------------------------------------------------


e-18(20)------(20)---(18)-15----------18--18--18----------18-18---------
B----------------------------18(20)--------------18(20)-----------------
G-----------------------------------------------------------------------
D-----------------------------------------------------------------------
A-----------------------------------------------------------------------
E-----------------------------------------------------------------------


e----------18-18----------18-18----------18-18-18-18---18---------------
B-18(20)---------18(20)---------18(20)--------------------(20)(18).-----
G-----------------------------------------------------------------------
D-----------------------------------------------------------------------
A-----------------------------------------------------------------------
E-----------------------------------------------------------------------


(auto wah)

e-----------------------------------------------------------------------
B-(20)(18).--(20)(18).--(20)(18).--(20)(18).--(20)(18).--(20)(18).------
G-----------------------------------------------------------------------
D-----------------------------------------------------------------------
A-----------------------------------------------------------------------
E-----------------------------------------------------------------------


e-----------------------------------------------------------------------
B-(20)(18).--(20)(18).--(20)(18).--(20)(18).--(20)(18).--(20)(18).-(20)\
G-----------------------------------------------------------------------
D-----------------------------------------------------------------------
A-----------------------------------------------------------------------
E-----------------------------------------------------------------------


e-11(13)------11(13)------11(13)---(11)-8-------------------------------
B-----------------------------------------11-8--------------------------
G----------------------------------------------10(12)---(10)p8----------
D--------------------------------------------------------------10-8-----
A-----------------------------------------------------------------------
E-----------------------------------------------------------------------


e-----------------------------------------------------------------------
B------------------------8-----------------8---11p8----------8---11p8---
G---------------10(12)-----10p8---10(12)------------10(12)--------------
D-----------------------------------------------------------------------
A-10-9-8----------------------------------------------------------------
E--------11-8-----------------------------------------------------------


e-----------------------------------------------------------------------
B----------8-11(13)------11p8-------------------------------------------
G-10(12)----------------------10-8--------------------------------------
D----------------------------------10p8---------------------------------
A-----------------------------------------------------------------------
E-----------------------------------------------------------------------


e-11(13)------11-8------------------------------------------------------
B------------------11-8-------------------------------------------------
G-----------------------10(12)---(10)-8-8~------------------------------
D-----------------------------------------------10p8--------------------
A----------------------------------------------------10p9p8-------------
E-----------------------------------------------------------11-8--------


e-----------------------------------------------------------------------
B-----------------------------------------------------------------------
G--------------------------------8---10(12)---(10)p8--------------------
D------8~-8~-8~-8~-8~-8~-8~-8h10---------------------10.----------------
A-8-10------------------------------------------------------------------
E-----------------------------------------------------------------------


e-------11~------11-13~------13-/-15-15.------15-18-18.-----------------
B-11/13-----------------------------------------------------------------
G-----------------------------------------------------------------------
D-----------------------------------------------------------------------
A-----------------------------------------------------------------------
E-----------------------------------------------------------------------


e-20(22)---------20(22)------20(22)---20(22)---20(22)---20(22)---20(22)-
B-----------------------------------------------------------------------
G-----------------------------------------------------------------------
D-----------------------------------------------------------------------
A-----------------------------------------------------------------------
E-----------------------------------------------------------------------


e-(22)-(22)-(22)-(22)-(22)-(22)-(22)---\--------------------------------
B-----------------------------------------------------------------------
G-----------------------------------------------------------------------
D-----------------------------------------------------------------------
A-----------------------------------------------------------------------
E-----------------------------------------------------------------------


e-11(13)--------11(13)-----11(13)-----8---------------------------------
B---------------------------------------11-8----------------------------
G--------------------------------------------10(12)---(10)p8----10-8----
D------------------------------------------------------------10------10-
A-----------------------------------------------------------------------
E-----------------------------------------------------------------------


e-----------------------------------------------------------------------
B-----------8-----------------------------------15-16-18(20)------------
G----7-8-10----------------------------------17-------------------17-15-
D-10------------10-10~--------------------------------------------------
A-----------------------------------------------------------------------
E-----------------------------------------------------------------------


e--------------------------------------------------------15-------------
B-----------8.----------------------------------15-16-18----------------
G----7-8-10----------------------------------17---------------17-17~----
D-10-------------10-10~-------------------------------------------------
A-----------------------------------------------------------------------
E-----------------------------------------------------------------------


e-----------------------------------------------------------------------
B----------------------------------8.-----------------------------------
G-17-15-17-15-\-------------7-8-10--------------------------------------
D------------------------10-------------10-10~--------------------------
A-----------------------------------------------------------------------
E-----------------------------------------------------------------------


e-------------------------18-18---------------------18-18-18-18-18---18-
B----15-16-18-18(20)------------(20)(18)---18(20)-----------------------
G-17--------------------------------------------------------------------
D-----------------------------------------------------------------------
A-----------------------------------------------------------------------
E-----------------------------------------------------------------------


e----------18-18----------18-18----------18-18----------18-18--.........
B-18(20)---------18(20)---------18(20)---------18(20)-------------------
G-----------------------------------------------------------------------
D-----------------------------------------------------------------------
A-----------------------------------------------------------------------
E-----------------------------------------------------------------------