20130619

CARTOLA O MUNDO É UM MOINHO TAB


Cartola plays O Mundo É Um Moinho with a single guitar.
See the TAB under the video.



CARTOLA O MUNDO É UM MOINHO TAB

PDF >>

e-0------------2-----------0--------------------------2-----------------
B-2------------3-----------3--------------------------2-----------------
G-2------------4-----------1--------------------2-----2-----------------
D-2------------4-----------2----------------4---------2-----------------
A-0------------2-----------2------------0-----------0-------------------
E--------------------------0--------------------------------------------


e-------------2-----------4-----2-----------------------4---------------
B----------3--------------3-----3--------------------5------------------
G-------2-----------------4-----4-----------------4---------------------
D----4-----------------------------------------6------------------------
A-2-----------------------------------------4---------------------------
E-------------------------0-----0---------------------------------------



e-------5---------5---------------5-5-----------------------------------
B-----5---5-----6---6---------7-----7-----------------------------------
G---6---------6-------6-----7---7---7-----------------------------------
D-----------------------------------7-----------------------------------
A-----------------------5-----------5-----------------------------------
E-5---------5-----------------------------------------------------------


e----------2--------2-------------0--------------------------------0----
B-------4-----------4-------------0-----------------------------0-------
G----2-----------2-----2--------------------------1----------1----------
D-----------------------------2-------2.-------0-----0.-----------------
A-2-----------0---------------------------------------------------------
E-------------------------4----------------2--------------0-------------


e-2-----0---------------------------------------------------------------
B-0---------------------------------------------------------------------
G-1---------------------------------------------------------------------
D-----------------------------------------------------------------------
A-----------------------------------------------------------------------
E-0---------------------------------------------------------------------


e-------------5------------------4-----2-----0--------------------------
B----------3---------------------3-----3-----3--------------------------
G-------2---------------------4-----4-----4-----4-----------------------
D----4------------------------------------------------------------------
A-2---------------------------------------------------------------------
E-------------------------0---------------------------------------------


e--------------7------------------5----------5-----------5--5-----------
B--------5---------------------5----------6-----------7-----7-----------
G-----4-----4---------------6----------6-----------7--------7-----------
D-----------------------------------------------------------7-----------
A-4---------------------------------------------5-----------5-----------
E------------------------5----------5-----------------------------------


e-------2-----------2------------2-----------1-----------0----2---------
B-------4-----------4------------3-----------3-----------3----3---------
G----2-----2-----2-----2------1-----1-----1-----1-----1-----1-1---------
D-----------------------------------------------------------------------
A-2-----------0---------------------------------------------------------
E--------------------------0-----------0-----------0----------0---------


e-----------------------------------------------------------------------
B---------7-------------7---------------5-------5-------5---------------
G---------5-------------5---------------4-------4-------4---------------
D------7-----7--7---7---------------6-------6-------6-------------------
A-7\6-----------6---------------5---------------------------------------
E-----------------------------------------------------------------------


e------------------------------------------------2-----5-----2----------
B----5--------5-----------5--------4-------------3-----3-----3----------
G-------2-----2-----2-----2-----2--2-----2----2-----2-----2-------------
D----------2-----2--------4--------4------------------------------------
A-4-----------4-----------3--------3-------2----------------------------
E-----------------------------------------------------------------------


e-------0-----2-----2--------3-----2-----0------------------------------
B-------3-----3-----3--------2-----2-----2------------3-----2-----------
G----1-----1-----1--------0-----0-----0-----0---------3-----3-----------
D--------------------------------------------------2-----2--------------
A-------------2--------1------------------------------------------------
E-0--------------------------------------------2------------------------


e-----------------------------------------------------------------------
B--------7-----7-----7---------------5-----5-----5----------------------
G--------5-----5-----5---------------4-----4-----4----------------------
D-----7-----7-----7-----7---------6-----6-----6-----6-------------------
A-6---------------------------5-----------------------------------------
E-----------------------------------------------------------------------


e-----------------------------------------------------------------------
B-------5-----5-----------5--------------4------------------------------
G-------2-----2-----2-----2--------2-----2--------2---------------------
D----2-----2-----2-----2--4-----4--------4-----4------------------------
A-4-----------4-----------3--------------3------------------------------
E-----------------------------------------------------------------------


e---------------5---2------------------------0--------------------------
B-3-------------3-------5-3------2-----------0--------------------------
G-2--------2----2----------------2-----------1--------------------------
D-4----------4--4----------------1-----------2--------------------------
A-2-----2-------2----------------------------2--------------------------
E--------------------------------2-----------0--------------------------


e--------------2--------2-----------------------------------------------
B-----------2-----2-----2-----------------------------------------------
G--------2-----------2--2-----------------------------------------------
D-----2-----------------2-----------------------------------------------
A-0---------------------0-----------------------------------------------
E-----------------------------------------------------------------------