20130610

EUROPA ACOUSTIC TAB (COVER BY KZKW)


Exciting fingerstyle guitar cover of Santana's Europa played by KZ KW.
CAPO on the 2nd, TAB helps below.



EUROPA ACOUSTIC TAB

PDF >>

Part 1

e-----4-6-6/7-6-4-2-----------------------------------------------------
B-4.--------------------------------------------------------------------
G-----------------------------------------------------------------------
D-----------------------------------------------------------------------
A-----------------------------------------------------------------------
E-----------------------------------------------------------------------


e-----------------------------------2---------2-4-4h6-4---2-------------
B-5---------------------------5.----2-----4/5---------------2-----------
G-4-----------------------4---------3-----------------------------------
D-6-------------------6-------------2-----------------------------------
A-4---------------------------------4-----------------------------------
E---------x---2---2-----------------2-----------------------------------



e------------------------------------------------4---p2-----------------
B-4-----------------------4.-------4.---5---7.--------------------------
G-3-------------------3-------------------------------------------------
D-4---------------4------------6----------------------------------------
A-2-------x---2----------------7----------------------------------------
E-----------------------------------------------------------------------


e-----------------------------------------------------------------------
B-5p4---2------------------------------------2.---4.---5-5h7---5-4p2----
G--------------------------------------------------------------------4.-
D-----6-----------------------------6.---5------------------------------
A-------6-------x---6---6-------6--------6------------------------------
E---------------------------6-------------------------------------------


e-----------------------------------------------------------------------
B-----------------------------------------------------------------------
G-4------x---6p4--------------------------------------------------------
D-6------x--------------------------------------------------------------
A-6------x-------6p4-6p4-6p2--------------------------------------------
E-4------x-------------------------4.-----------------------------------


Part 2

e-----4-6-6/7-6-4-2-----------------------------------------------------
B-4.--------------------------------------------------------------------
G-----------------------------------------------------------------------
D-----------------------------------------------------------------------
A-----------------------------------------------------------------------
E-----------------------------------------------------------------------


e---------------------------------2-----------2-4-4h6-4---2-------------
B-5-------------------------------2-------4/5---------------2-----------
G-4-------------------6/8---6\3---3-------------------------------------
D-6-------------------------------2-------------------------------------
A-4-------------------------------4-------------------------------------
E---------x---2---2---------------2-------------------------------------


e-----------------------------------------------------4---p2------------
B-4-------------------------------------4.---5---7.---------------------
G-3-------------------4/6---4---2---------------------------------------
D-4---------------------------------6-----------------------------------
A-2-------x---2---2-----------------7-----------------------------------
E-----------------------------------------------------------------------


e-----------------------------------------------------------------------
B-5p4---2-----------2---------------------2.---4.---5-5h7---5.---4p2----
G-----------------4-----4.---3------------------------------------------
D-----6--------------------------6.---5---------------------------------
A-------6-------6---------------------6---------------------------------
E-----------------------------------------------------------------------


e-----------------------------------------------------------------------
B-4-----------------------4-------x-------------------------------------
G-5---------------------------5---x-------------------------------------
D-5-------------------5-----------x-------------------------------------
A-----------------6---------------x-------------------------------------
E-4-------x---4-------------------x-------------------------------------


Part 3

e--------------------11-------------------------------------------------
B-/4-------4/9----------------------------------------------------------
G-----------------------------------------------------------------------
D-----------------------------------------------------------------------
A-----------------------------------------------------------------------
E-----------------------------------------------------------------------


e-11----------------------------------------9-7-9-----------11----------
B-9-------------9---------------2---------7-7--------------------2------
G-9---------9---------------9-------------------------------------------
D-9-----9---------------9---------------9-------------------------------
A-----------------------------------------------------------------------
E-9-----------------9---------------2-------------------2---------------


e------------------------------------------------------------11---------
B------------14-12----11------------11---14.---14\-------9--------------
G-------11---------11-11---11-------11---11.---11\-----9----------------
D-11/13---------------11-----------------------------9------------------
A----------2--------------------2---------------------------------------
E-----------------------------------------------------------------------


e-11---11---x---11\--------9-7-6--------------------------------9~------
B-9----9----x-------12\---x-------------------------------------8~------
G-9----9----x-------------x-----------------------------------8---------
D-9----9----x-------------x------------6-8-8----------------------------
A----------------------------------6-------------6/8---9---10-----------
E-----------------------------------------------------------------------


e-x---7.----------------------------------------------------------------
B-x------------------------4--------------------------------------------
G-x--------6h7---6h7-4-------4---------------4--------------------------
D----------------------6-------6---------------4------------------------
A------------------------------------------------6-6p2------------------
E--------------------------4-----------4---4-----------4----------------


Part 4

e-----------------------------------------------------------------------
B-----------------------------------------------------------------------
G-------3---/4-4.-------------------------------------------------------
D-4/6-------------------------------------------------------------------
A-----------------------------------------------------------------------
E-----------------------------------------------------------------------


e-----------------------------------------------------------------------
B-----4---------------4---------------4---------------------------------
G-6---------------6---------------6----------------6---4-6-2------------
D---------------4---------------4---------------------------------------
A-----------------------------------------------------------------------
E-2-------x---2-----------x---2-----------x---2.------------------------


e-----2---------------2-------2-----2-2---2h4-2--------4-2--------------
B-4---------------4-----------2---4-----4-4----------------4p2----------
G---------------3-------------2---4-------4--------------------4.-------
D-------------4-------------------2-------2-------2.--------------------
A-2-------x-------2-------x---------------------------------------------
E-----------------------------------------------------------------------


e-----------------------------------------4p2---------------------------
B-4---4---x-----------4---x---2---4---4-------4-2h3p2-------2h4p2-------
G-6---6---x-------6-------x---2---6---6---------------4-----------4-----
D-5---5---x-----5---------x-------5---5-----------------6---------------
A-6---6---x---6-----------x-------6---6---------------------------------
E-----------------------------------------------------------------------


e-----------------------------------------------------------------------
B-4-------x-------------------------------------------------------------
G-4-------x---6p4-------------------------------------------------------
D-6-------x-------------------------------------------------------------
A---------x-------6p4-6p4-6p2-------------------------------------------
E-4-------x-------------------------4.----------------------------------


Part 5

e-----------------------------------------------------------------------
B-----------------------------------------------------------------------
G-------3---/4-4.-------------------------------------------------------
D-4/6-------------------------------------------------------------------
A-----------------------------------------------------------------------
E-----------------------------------------------------------------------


e-----------------------------------------------------------------------
B-----4---------------4---------------4---------------------------------
G-6---------------6---------------6----------------6---4-6-2------------
D---------------4---------------4---------------------------------------
A-----------------------------------------------------------------------
E-2-------x---2-----------x---2-----------x---2.------------------------


e-----2---------------2-------2-----2-2---2h4-2--------4-2--------------
B-4---------------4-----------2---4-----4-4----------------4p2----------
G---------------3-------------2---4-------4--------------------4.-------
D-------------4-------------------2-------2-------2.--------------------
A-2-------x-------2-------x---------------------------------------------
E-----------------------------------------------------------------------


e-----------------------------------------4p2---------------------------
B-4---4---x-----------4---4---2---4---4-------4-2h3p2---------2---------
G-6---6---x-------6-------6---2---6---6---------------4-6---4-2---------
D-5---5---x-----5---------5---2---5---5-----------------6---------------
A-6---6---x---6-----------6---2---6---6---------------------------------
E-----------------------------------------------------------------------


e---------------------------------4---/---------------------------------
B-4-------x---------------4-------4---/---------------------------------
G-5-------x-------------------5---5---/---------------------------------
D-5-------x-----------5-----------5---/---------------------------------
A---------x-------6-----------------------------------------------------
E-4-------x---4---------------------------------------------------------


Part 6 = Part 3

Part 7 = Part 2

The end is like this

e-4--------------------------4-------4---/------------------------------
B-4-----------------------4----------4---/------------------------------
G-5--------------------5-------------5---/------------------------------
D-5-----------------5----------------5---/------------------------------
A-6--------------6-------------------6---/------------------------------
E-4-----------4----------------------4---/------------------------------