20130624

INDONESIA RAYA TAB (WR SUPRATMAN LAGU KEBANGSAAN INDONESIA)

There is the Indonesian national anthem played by Opik Bape with an acoustic guitar.
WR Supratman Lagu Kebangsaan Indonesia guitar solo.
TAB helps below.


INDONESIA RAYA TAB                                                                    Printanble tab here


e-------------9---------9-7---7-5---------------------------------------
B-2---3-5---------------------------5-----------------------------------
G-2---4-6-----9---------9-7---7-6---6-----------------------------------
D-----------------------------------------------------------------------
A-------0-----------0-----------0---------0-----------------------------
E-----------------0---------------------0-------------------------------


e-----------------------------------------------------------------------
B-5---5-7-----5-----3-----2-----0---------------------------------------
G-6---6-7-----6-----4-----2-----1---------1-----------------------------
D-------------------------------------2---------------------------------
A-------5-----4-----2-----0-----------------2---------------------------
E-------------------------------0---------------------------------------


e-------------7---------7---------------2-------------------------------
B-0-----------------------10---10-9.------------------------------------
G-----6-7-----7-------------------------2-------------------------------
D-----------------------------------------------------------------------
A-------------------------------------------2-2-------------------------
E-------7---------7-7-------------0-------------------------------------


e-0---0-4-----2-----0---------------------------------------------------
B-------------------------3-----2---------------------------------------
G-1---1-------------------------2---------2-----------------------------
D-------------------------------------2-----------2---------------------
A-------------------------------0---------------------------------------
E-------0-----2-----4-----0-----------------0---------------------------


e-------------9---------9-7---7-5---------------------------------------
B-2---3-5---------------------------5-----------------------------------
G-2---4-6-----9---------9-7---7-6---6-----------------------------------
D-----------------------------------------------------------------------
A-------0-----------0-----------0---------0-----------------------------
E-----------------0---------------------0-------------------------------


e-------------------5.----7.----4-----------2---------------------------
B-5---5-7.----5.----------5.--------------3-3---------------------------
G-6---6-7.----6.----6.----6.----------2-----2---------------------------
D-------------------------5.----0-----------0---------------------------
A-------0.----4.----0.--------------------------------------------------
E-----------------------------------------------------------------------


e-2---2-10-----10-----9-----7.----12------------------------------------
B-3---3-7------7------7-----7.----10-----------10---9-------------------
G-2---2-7-------------7-----------9------9-----9------11-9--------------
D-------0---------------------------------------------------------------
A-------------------0-------------0----------0--------------------------
E--------------------------------------------------------0---0----------


e-10.-----9.-----7.-----5-----------------------------------------------
B-9---------------------5---------5-------------------------------------
G-9.------9.-----7.-----6---------6-------------------------------------
D-----------------------------7-----------------------------------------
A-----------------------0-----------------------------------------------
E--------------0--------------------0-----------------------------------


e---------------10---10-10-----10---10-9.-------------------------------
B---5---5-7.----7----7--7------7----7--10.-----10---10-10---10-9---10---
G-6-6---6-7.----7----7--7----7---------9.------9----9--9----------------
D---------0.--0------0--0----------------------11---11-11---------------
A--------------------------------------0-----0---------0----------------
E-----------------------------------------------------------------------


e--------12---12-12-----10---10-9------9------5-------------------------
B-12.----9----9--9--------------10-----10-----5-------------------------
G--------9----9--9----9---------9------9------6-------------------------
D-----------------------------------------------------------------------
A-------------------------------0-----------0---------------------------
E------0---------0------------------------------------------------------


e-------------10---10-10-----10---10-9.------12---12-12-----------------
B-5---5-7.----7----7--7------7----7--10.-----10---10-10---10-9---10-----
G-6---6-7.----7----7--7----7------7--9.------9----9--9------------------
D-----------0---------0-------------------------------------------------
A------------------------------------0.----0---------0------------------
E-----------------------------------------------------------------------


e---------12---12-12.-----9.---7-5-----------------5---5.---------------
B-12.-----9----9--9.-------------------5-----------5---5.---------------
G---------9----9--9.------9.---7-6-----6---------6-----6.---------------
D------------------------------------7---7-6-5--------------------------
A--------------------------------0--------------------------------------
E-------0---------0.----------------------------------------------------


e-10.-----14---14-14------14---14-12-----9----9--9------12---12---------
B-10.-----15---15-15------15---15--------10---10-10-----10---10---------
G-11.-----14---14-14---14------14--------9----9--9----9-9----9----------
D-------0---------0-----------------------------------------------------
A--------------------------------------0---------0----------------------
E-----------------------------------------------------------------------


e-10--------------------12---10-9------9--------------------------------
B-9------12---12-12-------------10-----10-----10-----10---10------------
G-9------9----9--9----9---------9------9------9------9----9-------------
D---------------------------------------------11-----11---11------------
A-------------------------------0------------------0--------------------
E-0-----------0--0--------------------------0---------------------------


e-10.-----14---14-14------14---14-12-----9----9--9------12---12---------
B-10.-----15---15-15------15---15--------10---10-10-----10---10---------
G-11.-----14---14-14---14------14--------9----9--9----9-9----9----------
D-------0---------0-----------------------------------------------------
A---------------------------------0----0---------0----------------------
E-----------------------------------------------------------------------


e-12-----10---9--------9-------------9----9------9----9-----------------
B-9------9------12---------12-10-----10---10-----10---10----------------
G-9------9-------------------------9-9----9----9-9----9-----------------
D-----------------------------------------------------------------------
A-----------------------------0--------------0--------------------------
E-0-------------0-------------------------------------------------------


e-10.-----14---14-14------14---14-12-----9----9--9------12---12---------
B-10.-----15---15-15------15---15--------10---10-10-----10---10---------
G-11.-----14---14-14---14------14--------9----9--9----9-9----9----------
D-------0---------0-----------------------------------------------------
A---------------------------------0----0---------0----------------------
E-----------------------------------------------------------------------


e-10--------------------12---10-9---------------------------------------
B--------12---12-12-------------10-----10-----10-----10---10------------
G--------9----9--9----9---------9------9------9------9----9-------------
D--------------------------------------11-----11-----11---11------------
A-------------------------------0------------------0--------------------
E-0----0---------0--------------------------0---------------------------


e-10.-----14---14-14------14---14-12-----9----9--9------12---12---------
B-10.-----15---15-15------15---15--------10---10-10---------------------
G-11.-----14---14-14---14------14--------9----9--9----9-----------------
D-------0---------0-----------------------------------------------------
A---------------------------------0----0---------0----------------------
E-----------------------------------------------------------------------


e-12-----10---9--------9-----7-----5------------------------------------
B--------9------12-----------------5------------------------------------
G--------9-------------9-----7-----6------------------------------------
D----------------------------------7------------------------------------
A----------------------------------0------------------------------------
E-0-------------0-------------------------------------------------------
 


SEE ALSO

JANA GANA MANA TAB by Takar Nabam



ADVANCE AUSTRALIA FAIR TAB by Kyösti Rautio



AMERICAN NATIONAL ANTHEM TAB by Slash

        

MAKE YOUR GUITAR TAB REQUEST HERE

MORE ON GUITAR TABS A-Z