20130627

JASON MRAZ LIFE IS WONDERFUL TAB (LIVE)

Jason Mraz and Toca Rivera performs Life Is Wonderful. How easy to make awesome music with a single guitar and some drums, you don't need a full band.
"This probably is one of my favourite songs that I've ever written and I hope it speaks for itself " - says Jason in the beginning. See the TAB of Jason's playing below.



JASON MRAZ LIFE IS WONDERFUL TAB

PDF >>

Verse

e---------4---------------4---------------4---------------4-------------
B---------4---------------4---------------4---------------4-------------
G---------4---------------4---------------4---------------4-------------
D---------6---------------6---------------6---------------6-------------
A---------6---------------6---------------6---------------6---2---------
E-4-----------2---4-----------2---4-----------2---4---------------------


e---------4---------------4---------------4---------------4-------------
B---------5---------------5---------------5---------------5-------------
G---------6---------------6---------------6---------------6-------------
D---------6---------------6---------------6---------------6-------------
A-4-----------2---4-----------2---4-----------2---4-----------2---------
E-----------------------------------------------------------------------



e-----------------------------------------------------------------------
B---------9---------------9---------------8---------------8-------------
G---------9---------------9---------------9---------------9-------------
D---------9---------------9---------------9---------------9-------------
A-7-----------2---7-----------2---7-----------2---7-----------2---------
E-----------------------------------------------------------------------


e---------7---------------7-------2-------------------------------------
B---------7---------------7-------2-------------------------------------
G---------8---------------8-------3-------------------------------------
D---------9---------------9-------4-------------------------------------
A---------9---------------9-------4-------------------------------------
E-7-----------2---7-----------2---2-------------------------------------


Chorus

e---------4---------------4---------------4---------------4-------------
B---------4---------------4---------------5---------------5-------------
G---------4---------------4---------------6---------------6-------------
D---------6---------------6---------------6---------------6-------------
A---------6---------------6---2---4-----------2---4-----------2---------
E-4-----------2---4-----------------------------------------------------


e---------2---------------2---------------------------------------------
B---------2---------------2---------------4-----------------------------
G---------3---------------3---------------4-----------------------------
D---------4-------4-------4---------------4-----------------------------
A---------4---4---------------2---2-----------2---2---4---2-------------
E-2-----------------------------------------------------------6---------


e---------4---------------4---------------4---------------4-------------
B---------4---------------4---------------5---------------5-------------
G---------4---------------4---------------6---------------6-------------
D---------6---------------6---------------6---------------6-------------
A-----6-------------------6---2---4-----------2---4-----------2---------
E-4-----------2---4-----------------------------------------------------


e-2---------------------------------------------------------------------
B-2---------------------------------------------------------------------
G-3---------------------------------------------------------------------
D-4---------------------------------------------------------------------
A-4---------------------------------------------------------------------
E-2---------------------------------------------------------------------