20130615

JOSÉ FELICIANO LIGHT MY FIRE TAB


José Feliciano plays an acoustic version of Light My Fire by the Doors.
Great version of the famous Doors song.
See the TAB under the video.



JOSÉ FELICIANO LIGHT MY FIRE TAB

PDF >>

Intro

e-0-------x---0---0---0---x---------------------------------------------
B-1-------x---1---1---1---x---2-----------------------------------------
G-0-------x---0---0---0---x---2-------2-4p2---2-4p2---2-4p2-------------
D---------x---------------x---2-----4-------4-------4-------4.----------
A-0-------x---0---0---0---x---------------------------------------------
E-----------------------------2-----------------------------------------


e-0-------x---0---0---0---x-----------4-------2-------------------------
B-1-------x---1---1---1---x---2-------2-------2-------2---2-------------
G-0-------x---0---0---0---x---2-------2-------2-------2---2-------------
D---------x---------------x---2-----------------------2---2-------------
A-0-------x---0---0---0---x---------------------------------------------
E-----------------------------2-----------------------2---2-------------



e-----------------2---2---x---2-------0---x-------x---------------------
B-0---0---0---0---2---2---x---3-------3---x---3---x---2-----------------
G-0---0---0---0---2---2---x---2-------2---x---4---x---2-----------------
D-0---0---0---0-----------x---0-----------x---4---x---2-----------------
A-----------------0---0---x-----------4---x---2---x---0---0-------------
E-3---3---3---3-----------------------------------------------0h2-------


e-----------------2---2---x---2-------0---x-------x---------------------
B-0---0---0---0---2---2---x---3-------3---x---3---x---2-----------------
G-0---0---0---0---2---2---x---2-------2---x---4---x---2-----------------
D-0---0---0---0-----------x---0-----------x---4---x---2-----------------
A-----------------0---0---x-----------4---x---2---x---0---0-------------
E-3---3---3---3-----------------------------------------------0h2-------


e-------------------------x---0-------------------0---------------------
B-0---0---0---0---3---3---x---0-------------------0---------------------
G-0---0---0---0---2---2---x---1-------------------1---------------------
D-0---0---0---0---0---0---x---0-------------------0---------------------
A-------------------------x---2-------------------2---------------------
E-3---3---3---3---2---2-------0-------------------0---------------------


e-0---x---0---0---------------------------------------------------------
B-0---x---0---0---------------------------------------------------------
G-1---x---1---1---------------------------------------------------------
D-0---x---0---0---------------------------------------------------------
A-2---x---2---2---------------------------------------------------------
E-0---x---0---0---------------------------------------------------------


Verse

e-0---0---x---0-----------0-------------------4-------2---2-------------
B-1---1---x---1-----------1-------2---2---x---2-------2---2---2---------
G-0---0---x---0-------0-----------2---2---x---2-------2---2---2---------
D-----2---x-------2---------------2---2---x-------------------2---------
A-0-------x---0---------------0-------4---x-------4---------------------
E---------------------------------2-----------2-------------------------


e-0---0---x---0-----------0-------------------4-------2---2-------------
B-1---1---x---1-----------1-------2---2---x---2-------2---2---2---------
G-0---0---x---0-------0-----------2---2---x---2-------2---2---2---------
D-----2---x-------2---------------2---2---x-------------------2---------
A-0-------x---0---------------0-------4---x-------4---------------------
E---------------------------------2-----------2-------------------------


e-0---0---x---0-----------0-------------------4-------2---2-------------
B-1---1---x---1-----------1-------2---2---x---2-------2---2---2---------
G-0---0---x---0-------0-----------2---2---x---2-------2---2---2---------
D-----2---x-------2---------------2---2---x-------------------2---------
A-0-------x---0---------------0-------4---x-------4---------------------
E---------------------------------2-----------2-------------------------


e-0---0---x---0-----------0-------------------4-------2---2-------------
B-1---1---x---1-----------1-------2---2---x---2-------2---2---2---------
G-0---0---x---0-------0-----------2---2---x---2-------2---2---2---------
D-----2---x-------2---------------2---2---x-------------------2---------
A-0-------x---0---------------0-------4---x-------4---------------------
E---------------------------------2-----------2-------------------------


Chorus

e---------x-------2---2---x-------2---0---x-------x---------------------
B-0---0---x-------2---2---x-------3---3---x---3---x---2-----------------
G-0---0---x-------2---2---x-------2---2---x---4---x---2-----------------
D-0---0---x---------------x-------0-------x---4---x---2-----------------
A---------x-------0---0---x-----------4---x---2---x---0-----------------
E-3---3---x---------------x---------------------------------------------


e---------x-------2---2---x-------2---0---x-------x---------------------
B-0---0---x-------2---2---x-------3---3---x---3---x---2-----------------
G-0---0---x-------2---2---x-------2---2---x---4---x---2-----------------
D-0---0---x---------------x-------0-------x---4---x---2-----------------
A---------x-------0---0---x-----------4---x---2---x---0-----------------
E-3---3---x---------------x---------------------------------------------


e-----------------------------------------------------2.----------------
B-0---0---0---3---3---x--------------------------3.---------------------
G-0---0---0---2---2---x---------------------4.--------------------------
D-0---0---0---0---0---x-----------2.---6.-------------4.----------------
A---------------------x---------------------2.---5.---------------------
E-3---3---3---2---2---x-----------0.---4.-------------------------------